Cifra Club

730 dias

Jorge Drexler

Cifra: Principal (violão e guitarra)
exibições 8.092
Tom: A
Intro
---------------------------------------------------
-----------0-----------0---------------------------
--------2--------2-----------------1--1/2/1--2--2--
-----2--------2-----2-----------2------------------
--0--------------------------2---------------------
--------------------------0------------------------ x 4


Asus2  Asus2/G        D5/F# D5/F#* D5/F#**  Esus4     E       Tab1
No hay rincon en esta casa,               que no te haga regresar.

Asus2  Asus2/G  D5/F# D5/F#* D5/F#**  Esus4   E          Tab2
Cada grano de memoria,              y la casa ,es un arenal.

Bm7*                   Esus4  E                 A** Asus4*** Tab2****
Fui a tus playas por el dia, y alli me quede dos años.

Bm7                    Esus4  E                 A** Asus4*** A Tab3
Fui lamiendo tus heridas,    fuistes dandome un remanso.


Asus2  Asus2/G    D5/F# D5/F#* D5/F#**  Esus4  E          Tab1
A la sombra de tu luna,                se acuno mi corazón.

Asus2  Asus2/G   D5/F# D5/F#* D5/F#**  Esus4   E       Tab2
Se borraron mis arrugas,               mi casa se ilumino.

Bm7               Esus4  E                  A** Asus4*** Tab2****
Germinaron mas canciones, de las que yo merecia,

Bm7                 Esus4  E                     A Asus4*** A**.
se paro el reloj de arena ...setecientos treinta dias.


Tab1
----------------------------------------------------
-----------0/2/0--------0---------------------------
--------2---------2-----------------1--1/2/1--2--2--
-----2---------------2-----------2------------------
--0---------------------------2---------------------
---------------------------0------------------------


Tab2
--------------------------------0-----
-----------0/2/0-----------0/2-----2--
--------2---------2-----0-------------
-----2---------------2----------------
--0-----------------------------------
--------------------------------------


Tab3
---------------------------
---------------------------
-----------1--1/2/1--2--2--
--------2------------------
-----2---------------------
--0------------------------


Asus2:   x0220x
Asus2/G: 3x220x
D5/F#:   2x023x
D5/F#*:  2x022x
D5/F#**: 2x020x
Esus4:   022200
Acordes para:
    Composição: Jorge Drexler Colaboração e revisão:
    • Vinícius

    0 comentários

    mostrar mais comentários

    Conseguiu tocar?

    0 tocaram 0 ainda não

    Grave um vídeo tocando 730 dias e mande pra gente!

    00:00 / 00:00
    outros vídeos desta música
    repetir qualidade Automático
    Outros vídeos desta música
    00:00 / 00:00
    Automático
    OK