Cifra Club

Me Haces Bien

Jorge Drexler

Cifra: Principal (violão e guitarra)
Selo Cifra Club: esta cifra foi revisada para atender aos critérios oficiais da nossa Equipe de Qualidade.
tom: A
[Intro] A  A7M  A/G  D/F#  E  A

E|------------------------------------------|
B|------------------------------------------|
G|------------------------------------------|
D|------------------------------------------|
A|-----2-2h4-4-4-2--0--------2-2h4-4-4-2-0h2|
E|-0-5-------------------0-5----------------|

E|------------------------------------------|
B|------------------------------------------|
G|------------------------------------------|
D|------------------------------------------|
A|-2h4-2-2---2h4-2-2---0h2-0-0--------------|
E|------------------------------------------|

[Primeira Parte]

         A
Para contarte, canto
          A7M     A/G
Quiero que sepas cuanto
           D/F#
Me haces bien
           E
Me haces bien
           A
Me haces bien

[Segunda Parte]

           A
Te quiero de mil modos
         A7M     A/G
Te quiero sobre todo
           D/F#
Me haces bien
           E
Me haces bien
           A  Asus4  A
Me haces bien

[Refrão]

       Bm7
Basta ver
       C#7                     F#m
El reflejo de tus ojos en los míos
                   Bsus4  B7
Como se lleva el frío
           Bm7  E
Para entender
            A
Que el corazón no miente
           A7M A/G
Que afortunadamente
           D/F#
Me haces bien
           E
Me haces bien
           A
Me haces bien

[Solo]        

E|------------------------------------------|
B|------------------------------------------|
G|------------------------------------------|
D|-6h7-7-7-7-7-7-6-6-6-6-7-6-4-4-4-4-6-4----|
A|------------------------------------------|
E|------------------------------------------|

E|------------------------------------------|
B|------------------------------------------|
G|------------------------------------------|
D|-------4h5-5-4----------------------------|
A|-7-7-7-----------5-5-5--4-4-4--2-2--0-----|
E|------------------------------------------|

[Primeira Parte]

         A
Para contarte, canto
          A7M     A/G
Quiero que sepas cuanto
           D/F#
Me haces bien
           E
Me haces bien
           A  Asus4  A
Me haces bien

[Refrão]

       Bm7
Basta ver
       C#7                     F#m
El reflejo de tus ojos en los míos
                   Bsus4  B7
Como se lleva el frío

           Bm7  
Me haces bien
           E
Me haces bien
           A  B
Me haces bien

           Bm7  
Me haces bien
           E
Me haces bien
           A  B
Me haces bien

           Bm7  
Me haces bien
           E
Me haces bien
           A  B
Me haces bien

[Final] A  A7M  A/G  D/F#  E  A

E|------------------------------------------|
B|------------------------------------------|
G|------------------------------------------|
D|------------------------------------------|
A|-----2-2h4-4-4-2--0--------2-2h4-4-4-2-0h2|
E|-0-5-------------------0-5----------------|

E|------------------------------------------|
B|------------------------------------------|
G|------------------------------------------|
D|------------------------------------------|
A|-2h4-2-2---2h4-2-2---0h2-0-0--------------|
E|------------------------------------------|
Outros vídeos desta música
    199.662 exibições
      • ½ Tom
      • A
      • Bb
      • B
      • C
      • Db
      • D
      • Eb
      • E
      • F
      • F#
      • G
      • Ab
    • Adicionar à lista

    Afinação da cifra

    Afinador online

      0 comentários

      Ver todos os comentários

      Entre para o Cifra Club PRO

      Tenha acesso a benefícios exclusivos no App e no Site

      • Chega de anúncios

      • Badges exclusivas

      • Mais recursos no app do Afinador

      • Atendimento Prioritário

      • Aumente seu limite de lista

      • Ajude a produzir mais conteúdo

      Cifra Club Pro

      Aproveite o Cifra Club com benefícios exclusivos e sem anúncios
      Cifra Club Pro
      Aproveite o Cifra Club com benefícios exclusivos e sem anúncios
      Ops (: Contenido disponible sólo en portugués.
      OK