Cifra Club

Yo no estoy en condiciones

Jorge Gonzalez

Cifra: Principal (violão e guitarra)
tom: Em
E|--------------------------------------------------------------------|
B|--------------------------------------------------------------------|
G|--------------------------------------------------------------------|
D|----2---2---4---4---5---5---1---1---1---1---1---1---1---1---1-------|
A|--0---0---0---0---0---0---0---0---0---0---0---0---0---0---0---------|
E|--------------------------------------------------------------------|

Porque cruza mi espalda la marca del ciego dolor

E|-----------------------------------------2-------2------2-------2----|
B|---------------------------------------3---3---3------3---3---3------|
G|--------------------2---2---4---4----3-------3------3-------3--------|
D|----2---2---4---4----------------------------------------------------|
A|--3---3---3---3---3---3---3---3--------------------------------------|
E|---------------------------------------------------------------------|

A veces no basta con el verdadero amor, uh uh uh, uh uh uh

E|---------------------------------------------------------------------|
B|---------------------------------------------------------------------|
G|--------------------2---2---4---4------------------------------------|
D|----2---2---4---4----------------------------------------------------|
A|--3---3---3---3---3---3---3---3--------------------------------------|
E|---------------------------------------------------------------------|

E|-------2-------2------2-------2------2-------2-------2----2----------|
B|-----3---3---3------3---3---3------3---3---3---3---3---3--3----------|
G|---3-------3------4-------4------5-------5-------5--------5----------|
D|---------------------------------------------------------------------|
A|---------------------------------------------------------------------|
E|---------------------------------------------------------------------|

(Golpe en la guitarra)

Yo no tengo la energía pa’ portarme bien
Vivo con lo que me queda de tu mudez

E|--------------------------------------------------------------------|
B|--------------------------------------------------------------------|
G|--------------------------------------------------------------------|
D|----2---2---4---4---5---5---1---1---1---1---1---1---1---1---1-------|
A|--0---0---0---0---0---0---0---0---0---0---0---0---0---0---0---------|
E|--------------------------------------------------------------------|

Porque aplasta mi espalda la carga de un ciego dolor

E|-----------------------------------------2-------2------2-------2----|
B|---------------------------------------3---3---3------3---3---3------|
G|--------------------2---2---4---4----3-------3------3-------3--------|
D|----2---2---4---4----------------------------------------------------|
A|--3---3---3---3---3---3---3---3--------------------------------------|
E|---------------------------------------------------------------------|

A veces no basta con el verdadero amor, uh uh uh, uh uh uh

E|---------------------------------------------------------------------|
B|---------------------------------------------------------------------|
G|--------------------2---2---4---4------------------------------------|
D|----2---2---4---4----------------------------------------------------|
A|--3---3---3---3---3---3---3---3--------------------------------------|
E|---------------------------------------------------------------------|

E|-------2-------2------2-------2------2-------2-------2----2----------|
B|-----3---3---3------3---3---3------3---3---3---3---3---3--3----------|
G|---3-------3------4-------4------5-------5-------5--------5----------|
D|---------------------------------------------------------------------|
A|---------------------------------------------------------------------|
E|---------------------------------------------------------------------|

Y ya no sé cómo hacer...

E|--7--------------------------------|
B|--8---7---5---3-5------------------|
G|--9---7---4---2-4------------------|
D|--9---7-------------2--------------|
A|--7-----------------2--------------|
E|-----------------------------------|

Em             G               A
   Nada te cambiará, nada me cambiará

Y ya no sé cómo hacer...

E|--7--------------------------------|
B|--8---7---5---3-5------------------|
G|--9---7---4---2-4------------------|
D|--9---7-------------2--------------|
A|--7-----------------2--------------|
E|-----------------------------------|

Em             G               A
   Nada me cambiará, nada te cambiará

Am B7 Em


Ya no estoy en condiciones de tratarte bien
Aunque seas la mujer que siempre amaré

E|--------------------------------------------------------------------|
B|--------------------------------------------------------------------|
G|--------------------------------------------------------------------|
D|----2---2---4---4---5---5---1---1---1---1---1---1---1---1---1-------|
A|--0---0---0---0---0---0---0---0---0---0---0---0---0---0---0---------|
E|--------------------------------------------------------------------|

Porque cruza mi espalda la marca del ciego dolor

E|-----------------------------------------2-------2------2-------2----|
B|---------------------------------------3---3---3------3---3---3------|
G|--------------------2---2---4---4----3-------3------3-------3--------|
D|----2---2---4---4----------------------------------------------------|
A|--3---3---3---3---3---3---3---3--------------------------------------|
E|---------------------------------------------------------------------|

A veces no basta con el verdadero amor, uh uh uh, uh uh uh

E|---------------------------------------------------------------------|
B|---------------------------------------------------------------------|
G|--------------------2---2---4---4------------------------------------|
D|----2---2---4---4----------------------------------------------------|
A|--3---3---3---3---3---3---3---3--------------------------------------|
E|---------------------------------------------------------------------|

E|-------2-------2------2-------2------2-------2-------2----2----------|
B|-----3---3---3------3---3---3------3---3---3---3---3---3--3----------|
G|---3-------3------4-------4------5-------5-------5--------5----------|
D|---------------------------------------------------------------------|
A|---------------------------------------------------------------------|
E|---------------------------------------------------------------------|

Y ya no sé cómo hacer...

E|--7--------------------------------|
B|--8---7---5---3-5------------------|
G|--9---7---4---2-4------------------|
D|--9---7-------------2--------------|
A|--7-----------------2--------------|
E|-----------------------------------|

Em             G               A
   Nada te cambiará, nada me cambiará

Y ya no sé cómo hacer...

E|--7--------------------------------|
B|--8---7---5---3-5------------------|
G|--9---7---4---2-4------------------|
D|--9---7-------------2--------------|
A|--7-----------------2--------------|
E|-----------------------------------|

Em             G               A
   Nada me cambiará, nada te cambiará

Am      B7       Em
00:00 / 00:00
Outros vídeos desta música
Repetir
Outros vídeos desta música
Composição de Jorge González
    • ½ Tom
    • Am
    • Bbm
    • Bm
    • Cm
    • C#m
    • Dm
    • Ebm
    • Em
    • Fm
    • F#m
    • Gm
    • G#m
  • Adicionar à lista

    0 comentários

    Ver todos os comentários

    Conseguiu tocar?

    0 Tocaram 0 Ainda não

    Grave um vídeo tocando Yo no estoy en condiciones e nos envie!

    00:00 / 00:00

    Cifra Club Pro

    Aproveite o Cifra Club com benefícios exclusivos e sem anúncios
    Cifra Club Pro
    Aproveite o Cifra Club com benefícios exclusivos e sem anúncios
    OK