Cifra Club

Amor Covarde

Jorge e Mateus

Cifra: Principal
exibições 456.934
Tom: C
Intro:

Solo:
E|-----------------------------------------|
B|-6-3-5-5/6-----1-3-3/5---1h3-1-----------|
G|-------------4-----------------3-2-------|
D|-----------------------------------3-----|
A|-----------------------------------------|
E|-----------------------------------------|

    A7             Dm          G
E|--------0------------1-----------3-------|
B|----------2------------3-----------3-----|
G|------0-----0-----2------2----0------0---|
D|----2-----------0------------------------|
A|-0---------------------------------------|
E|----------------------------3------------|
    C              Bb5(9)        F
E|---------------------1--------1----------|
B|------1----------------1------1----------|
G|--------0----------------2----2----------|
D|----2-----2-------3-----------3----------|
A|-3--------------1-------------3----------|
E|------------------------------1----------|

Refrão na Introdução:
    C5(9)         Bb5(9)
E|-------3-------------1-------------------|
B|---------3-------------1-----------------|
G|-----5-----5-------3-----3---------------|
D|---5-------------3-----------------------|
A|-3-------------1-------------------------|
E|-----------------------------------------|
    F
E|-----1---1----------------1--------------|
B|---1-------1--------1-------1------------|
G|-------------2--------2-------2----------|
D|-------3---------3------3----------------|
A|-----------------------------------------|
E|-1---------------------------------------|
    C5(9)         Bb5(9)       F
E|-------3-------------1------1------------|
B|---------3-------------1----1------------|
G|-----5-----5-------3-----3--2------------|
D|---5-------------3----------3------------|
A|-3-------------1------------3------------|
E|----------------------------1------------|


                                C5(9)
Quando a gente fica junto, tem briga
                     Bb5(9)   F
Quando a gente se separa, saudade
                              C
Quando marca um encontro, discute
                   Bb5(9)    F
Desconheço um amor    tão covarde
Primeira Parte:
    F       A7          Dm
E|---1--------------0------0h1-------1-----|
B|-----1----------2------------3-------3---|
G|--------------0--------2---------2-------|
D|------------2--------0---------0---------|
A|---------0-------------------------------|
E|-1---------------------------------------|
    Bb5(9)          C5(9)
E|-------1---------------3-----------------|
B|---------1---------------3---------------|
G|-----3-----3---------5-----5-------------|
D|---3---------------5---------------------|
A|-1---------------3-----------------------|
E|-----------------------------------------|
    F
E|---1------------1------------------------|
B|-----1------------1----------------------|
G|-------2------------2--------------------|
D|---------3------------3------------------|
A|-----------------------------------------|
E|-1------------1--------------------------|
    C5(9)
E|-------3-------------3-------------------|
B|---------3-------------3-----------------|
G|-----5-----5-------5-----5---------------|
D|---5-------------5-----------------------|
A|-3-------------3-------------------------|
E|-----------------------------------------|
    Bb5(9)          F
E|-------1-----------1-----1---------------|
B|---------1-----------1-------------------|
G|-----3-----3-----------2-----------------|
D|---3-------------------------------------|
A|-1---------------------------------------|
E|-----------------1-----------------------|
    Dm             C5(9)         B5(9)
E|-------1--------------3-------1----------|
B|-----3---3--------------5-----1----------|
G|---2-------2--------5-----5---3----------|
D|-0----------------5-----------3----------|
A|----------------3-------------1----------|
E|-----------------------------------------|

Variação p/ Refrão:
    Dm            C5(9)        F  B5(9) F
E|-------1-------------3------1--1-1---1-1-|
B|-----3---3-------------5----1--1-1---1-1-|
G|---2-------2-------5-----5--2--3-3---2-2-|
D|-0---------------5----------3--3-3---3-3-|
A|---------------3------------3--1-1---3-3-|
E|----------------------------1--------1-1-|
                              ↓  ↑ ↓   ↑ ↓

                       A7             Dm
Não vou mais me preocupar com a situação
   Bb5(9)              C5(9)              F
A gente se abraça, se beija com tanta ternura
     C5(9)                                    Bb5(9)
Mas sempre surge qualquer coisa de errado do tipo
                 F
Sem ter nem porquê
   Dm                   C5(9)           Bb5(9)
Detalhes que somente o tempo pode resolver
     F                  A7               Dm
Se o erro for meu eu assumo não quero saber
    Bb5(9)             C5(9)             F
Te peço milhões de desculpas se preciso for
     C5(9)
Não meço limite, distância
               Bb5(9)              F
Faço qualquer coisa pra não te perder
   Dm         C5(9)                     F  Bb5(9) F
Espero que você também seja capaz de fazer

Refrão:
                                C5(9)
Quando a gente fica junto, tem briga
                     Bb5(9)   F
Quando a gente se separa, saudade
                              C5(9)
Quando marca um encontro, discute
                   Bb5(9)    F
Desconheço um amor    tão covarde

                                C5(9)
Quando a gente fica junto, tem briga
                     Bb5(9)   F
Quando a gente se separa, saudade
                              C5(9)
Quando marca um encontro, discute
                   Bb5(9)    Dm   C5(9) Bb5(9)
Desconheço um amor    tão covarde

Primeira Parte:
     F                  A7               Dm
Se o erro for meu eu assumo não quero saber
    Bb5(9)             C                 F
Te peço milhões de desculpas se preciso for
     C
Não meço limite, distância
               Bb5(9)              F
Faço qualquer coisa pra não te perder
   Dm         C                         F  Bb5(9) F
Espero que você também seja capaz de fazer

Repetição:
                                C5(9)
Quando a gente fica junto, tem briga
                     Bb5(9)   F
Quando a gente se separa, saudade
                              C5(9)
Quando marca um encontro, discute
                   Bb5(9)    F
Desconheço um amor    tão covarde

                                C5(9)
Quando a gente fica junto, tem briga
                     Bb5(9)   F
Quando a gente se separa, saudade
                              C5(9)
Quando marca um encontro, discute
                   Bb5(9)    F
Desconheço um amor    tão covarde

C5(9)                Bb5(9)       F
  Desconheço um amor    tão covarde
C5(9)                Bb5(9)
  Desconheço um amor    tão covarde

Final:
E|-----------------------------------------|
B|-6---4/5-6-1~----------------------------|
G|---2-------------------------------------|
D|-----------------------------------------|
A|-----------------------------------------|
E|-----------------------------------------|


( F  C5(9)  Bb9 )
Acordes para:
    Colaboração e revisão:
    • Gustavo Cunha
    • Márcio

    0 comentários

      mostrar mais comentários

      Conseguiu tocar?

      29tocaram1ainda não

      Grave um vídeo tocando Amor Covarde e mande pra gente!

      00:00 / 00:00
      outros vídeos desta música
      repetirqualidadeautomática
      Outro vídeos desta música
        00:00 / 00:00
        automática
        Capítulos
        • Início
        • Tocando a música
        • Acordes da música
        • Tocando Introdução
        • Ensinando Solo da Introdução (Violão 2)
        • Ensinando Introdução (Violão 1)
        • Tocando Primeira Parte
        • Ensinando Primeira Parte (Violão 1)
        • Ensinando Ritmos da música (Violão 2)
        • Ensinando Ritmo da Versão Antiga (Pagode de Viola)
        • Tocando Refrão e Solo Final
        • Ensinando Solo Final (Violão 2)
        • Encerramento
        OK