Enviar cifraEntrar

Antonimos

Jorge e Mateus

Cifra: Principal
exibições 86.916
Tom: B (com acordes na forma de A) Capotraste na 2ª casa
      A               A4  A


E|--------------------------------------|
B|--0-2---2-2-0-2-0--2/3-2h3p2----------|
G|-2--2---2-2-2-2-2-----------4-2-------|
D|----2-2-2-2-2-2-2---------------0-----|
A|----0---------------------------------|
E|--------------------------------------



 D                          A
 Eu só queria ter o seu abraço
                       C#m
 Pra ver se eu disfarço
                   F#m
 Essa falta de você

           D
 Poder tocar
                            A
 Sentir o gosto do seu lábio
                   C#m
 Entrar no compasso
                      D
 e seu o coração bater
                 Dm
 Olhar nos teus olhos e dizer


 Refrão:

            A
 Sem você não importa se é doce ou salgado
                                               E
 Se tá quente ou gelado, se faz sol ou vai chover
                                                                           Bm
 Eu achei que tava certo, fui errado, era leve tá pesado ficar longe de você
                                          D
 No escuro ficar claro, o sozinho acompanhado
                                           A
 É só a gente ficar junto e não separado
                                 E
 Eu só existo se for do seu lado
(Repete tudo)
(Refrão2x)

     A                                    F#m                 D                        E                     D
 

E|-------------------------|----------------5-7/9-7?-5---|----------------------------------------------------|
B|--0-2-2--0-2-0-2--0-2-0--|----3/5-2-5/7-5------------7-|----------0h2-0h2-0h2-0h2p0--------------------2-3/7|
G|-2---------------------2-|-2-4-------------------------|-------2-------------------2-1--2-1h2p1-----2-4-----|
D|-------------------------|-----------------------------|----2-4-4------------------------------4-2-4--------|
A|-------------------------|-----------------------------|-2-4------------------------------------------------|
E|-------------------------|-----------------------------|----------------------------------------------------|




                    E


E|----5-----5-7?-?-5-7--7?-5-7--|
B|-5/7--7--7--------------------|
G|------------------------------|
D|------------------------------|
A|------------------------------|
E|------------------------------|
  • 1
  • 2
  • 3
  • 4
  • 5
  • 6
  • 7
  • 8
  • 9
  • 10
  • 11
  • 12
    Acordes para:

      0 comentários

        mostrar mais comentários

        Conseguiu tocar?

        4tocaram0ainda não

        Grave um vídeo tocando Antonimos e mande pra gente!

        00:00 / 00:00
        outros vídeos desta música
        repetirqualidadeautomática
        • automática
        Outro vídeos desta música
          00:00 / 00:00
          automática
          • automática
          Acordes para:violão e guitarra
          dificuldadeexibiçõescontribuições
          fecharplay/pause subir/descer velocidade
            acordes
            fechar
            OK
            Feedback