Cifra Club

Aprenda

Castigo

Jorge & Mateus

Tab de baixo: Principal
Quer fazer aulas de música com a gente? Responda essas perguntas
e nos ajude nesse projeto! →
Tom: C
Introdução: 

G |-------------------------------------------------------------------------|
D |-------------------------------------------------------------------------|
A |------------------------3--3-------------------3--2------3---------------|
E |-3--3----5--5---1-3----------3--3----5--5---------2-3--------------------|

Início:
  To sentindo raiva nesse seu olhar / Que jeito mais bobo de me castigar 
G |-------------------------------------------------------------------------|
D |------------------------------3-5----------------------------------------|
A |-3--3---3--3---3--3---3--3-----------------------------------------------|
E |-----------------------------------3--3---3--3---------------------------|

  Eu sei q fui grosso mais saiu assim / É sempre que você não acredita em mim 
G |-------------------------------------------------------------------------|

D |-------------------------------------------------------------------------|
A |-----------------2-3--3-0------------------------------------------------|
E |-2-1--1---1--1------------5--5---3--3------------------------------------|

  E me manda embora dizendo q não rola mais / Sei que não sou santo, nunca fui 
um anjo, mais não sou ruim / E quando eu amo todo meu amor, quero ela só pra mim 
G |--------------------------------------------------------------------------|

D |-----------------------------------------------------3-5------------------|
A |---------3--3---3--3---3--3---3--3---3--3---3--3-----3--3---3--3----------|
E |-1--3---------------------------------------------------------------------|

  Quando você quer você me abandona / Me deixa o pó do caco me manda pra lona 
Ai então eu bebo pra tentar te esquecer 

G |-------------------------------------------------------------------------|
D |-------------------------------------------------------------------------|
A |-----------------------------------3--3-----------------------3--3-------|
E |-3--3---3--3---2-1--1---1--1-----------5--5---3—3--1--3------------------|

Variação
G |------------|
D |------------|
A |-3-2--------|
E |------2-0-3-|

Eu já perdi o jogo, já perdi um lote / Sei q no amor também não To com sorte 
G |---------------------------------------------------|
D |---------------------------------------------------|
A |----------------3--3-------------------------------|
E |-3--3---3--3----------5--5---3--3------------------|

  To roendo o toco to rindo pra não chorar / Variação
G |-------------------------------------------------------------------------|
D |-------------------------------------------------------------------------|
A |-----3------------------------------3-2----------------------------------|
E |-1-3-------------------------------------2-0-3---------------------------|

  Nessa indiferença paixão dividida / Agora cada um segue a sua vida / De hoje 
em diante e eu pra cá você pra lá
G |-------------------------------------------------------------------------|
D |-------------------------------------------------------------------------|
A |---------------3--3-----------------------3--3---------------------------|
E |-3--3---3--3---------5--5---3--3---1-3-----------------------------------|

Introdução (1x) (observe a música para identificar os parágrafos tocados).
Composição de Jorge
Colaboração e revisão:
  • IURY SILVA
4.898 exibições

0 comentários

Ver todos os comentários
00:00 / 00:00
Outros vídeos desta música
Repetir Qualidade Automático
Outros vídeos desta música
00:00 / 00:00
Automático

Cifra Club Pro

Aproveite o Cifra Club com benefícios exclusivos e sem anúncios
Cifra Club Pro
Aproveite o Cifra Club com benefícios exclusivos e sem anúncios
OK