Notificações Amigos pendentes

      Jorge e Mateus

      Chove, Chove

      754.099 exibições
      Tom: B
      Refrão:
      B5(9)               E
       Chove quando voce some
              F#              B5(9)
      Chove amor quando se esconde
             G#m         E
      Chove só de te querer
              F#            B
      Chove Chove em mim você!
      
          B                   E5       F#4
      E|--------------------------------------------|
      B|--------------------------------------------|
      G|-------8---------8--------9----------11-----|
      D|-----9---9-----9---9----9---9-----9------9--|
      A|----------------------7--------9------------|
      E|--7---------7-------------------------------|
      
      
          B         G#m      E5       F#4         B5(9)
      E|------------------------------------------2-|
      B|------------------------------------------2-|
      G|-------8---------8-------9--------11------4-|
      D|-----9---9-----9---9---9---9----9----9----4-|
      A|------------11-------7--------9--------9--2-|
      E|--7-----------------------------------------|
      
      
      Intro: B5(9)  E  F#  B5(9)  G#m  E  F#  B5(9)  F#
      E|--------------4------|
      B|--7-7-7-4-7-4-5-7----|
      G|--4-4-4-4-4-4---4----|
      D|---------------------|
      A|---------------------|
      E|---------------------|
      
      
      E|---------------------|
      B|-6h7-7-7-5-5-4-5-4---|
      G|-4---4-4-4-4-4-4-4---|
      D|---------------------|
      A|---------------------|
      E|---------------------|
      
      
      E|-------------------------------------|
      B|--4--------4----5-----5----7-5-4---4-|
      G|--4--4-4-4-4--4-4-------4--------6-4-|
      D|-----4-4-4----4-----6--------------4-|
      A|------------------7------------------|
      E|-------------------------------------|
      
      
      E|-------------------------------------|
      B|-4-5-6-7-----------------------------|
      G|-------------------------------------|
      D|---------4---------------------------|
      A|-------------------------------------|
      E|-------------------------------------|
      
      
      Primeira Parte:
      B5(9)                   F#
           Achei que fosse fácil Amor ,
      C#m7           E              B5(9)
          mas foi difícil achar você
                        F#
      Faltou só um pouquinho Flor
      C#m7           E             B5(9)
         pra aquele beijo acontecer
               F#             C#m7
      E sem motivo quer me achar
                E                B5(9)
      Olha pro céu que eu vo tá lá
                F#          C#m7
       Em cada gota que chover
        E
      amor molhar voce
      
      (A partir da segunda estrofe)
      E|-14-x-x-14-x-x-14-x-x---------|
      B|-12-x-x-12-x-x-12-x-x---------|
      G|-11-x-x-11-x-x-11-x-x---------|
      D|------------------------------|
      A|------------------------------|
      E|------------------------------|
      
      
      E|-14-x-14-x-x-14-x-x-----------|
      B|-14-x-14-x-x-14-x-x-----------|
      G|-11-x-11-x-x-11-x-x-----------|
      D|------------------------------|
      A|------------------------------|
      E|------------------------------|
      
      
      E|-12-x-12-x-x-12-x-12-11-------|
      B|-14-x-14-x-x-14-x-------14-12-|
      G|-13-x-13-x-x-13-x-------------|
      D|------------------------------|
      A|------------------------------|
      E|------------------------------|
      
      
      E|-14-x-x-14-x-x-14-x-x---------|
      B|-12-x-x-12-x-x-12-x-x---------|
      G|-11-x-x-11-x-x-11-x-x---------|
      D|------------------------------|
      A|------------------------------|
      E|------------------------------|
      
      
      E|-14-x-14-x-x-14-x-x-----------|
      B|-11-x-14-x-x-14-x-x-----------|
      G|-11-x-11-x-x-11-x-x-----------|
      D|------------------------------|
      A|------------------------------|
      E|------------------------------|
      
      
      E|-12-x-12-x-x-12-x-12-11-------|
      B|-14-x-14-x-x-14-x-12-12-------|
      G|-13-x-13-x-x-13-x-------------|
      D|------------------------------|
      A|------------------------------|
      E|------------------------------|
      
      
      Segunda Parte:
      G#m                    C#m7 G#m
         Juro eu quero te tocar
                         E
      Em seu corpo deslizar
        F#
      Amor te ter!
      Solo:
      
      E|--11p7---11p7---11p7------|
      B|-------9------9-----------|
      G|--------------------------|
      D|--------------------------|
      A|--------------------------|
      E|--------------------------|
      
      
      E|--12p9---12p9---12p9------|
      B|-------9------9-----------|
      G|--------------------------|
      D|--------------------------|
      A|--------------------------|
      E|--------------------------|
      
      
      E|--11p7---11p7---11p7------|
      B|-------9------9-----------|
      G|--------------------------|
      D|--------------------------|
      A|--------------------------|
      E|--------------------------|
      
      
      E|-11--11--11---------------|
      B|-12--12--12---------------|
      G|---------11---------------|
      D|--------------------------|
      A|--------------------------|
      E|--------------------------|
      
      
      Refrão:
      B5(9)                   E
           Chove quando voce some
              F#              B5(9)
      Chove amor quando se esconde
             G#m         E
      Chove só de te querer
              F#              B5(9)
      Chove Chove em mim você! (2x)
          F#    E   F#
      Iê,Iê,Iê,Iê...
      
      
      Intro: B5(9)  E  F#  B5(9)  G#m  E  F#  B5(9)  F#
      E|--------------4------|
      B|--7-7-7-4-7-4-5-7----|
      G|--4-4-4-4-4-4---4----|
      D|---------------------|
      A|---------------------|
      E|---------------------|
      
      
      E|---------------------|
      B|-6h7-7-7-5-5-4-5-4---|
      G|-4---4-4-4-4-4-4-4---|
      D|---------------------|
      A|---------------------|
      E|---------------------|
      
      
      E|-------------------------------------|
      B|--4--------4----5-----5----7-5-4---4-|
      G|--4--4-4-4-4--4-4-------4--------6-4-|
      D|-----4-4-4----4-----6----------------|
      A|------------------7------------------|
      E|-------------------------------------|
      
      
      E|-------------------------------------|
      B|-4-5-6-7-----------------------------|
      G|-------------------------------------|
      D|---------4---------------------------|
      A|-------------------------------------|
      E|-------------------------------------|
      
      
      Primeira Parte:
      B5(9)                   F#
           Achei que fosse fácil Amor ,
      C#m7           E              B5(9)
          mas foi difícil achar você
                        F#
      Faltou só um pouquinho Flor
      C#m7           E             B5(9)
         pra aquele beijo acontecer
               F#             C#m7
      E sem motivo quer me achar
                E                B5(9)
      Olha pro céu que eu vo tá lá
                F#          C#m7
       Em cada gota que chover
        E
      amor molhar voce
      
      Segunda Parte:
      G#m                    C#m7 G#m
         Juro eu quero te tocar
                         E
      Em seu corpo deslizar
        F#
      Amor te ter!
      
      (repete refrão) (2x)
      
          F#    E   F#
      Iê,Iê,Iê,Iê...
      
      Refrão:
      B5(9)               E
       Chove quando voce some
              F#              B5(9)
      Chove amor quando se esconde
             G#m         E
      Chove só de te querer
              F#            B
      Chove Chove em mim você!
      
          F#    E   F#
      Iê,Iê,Iê,Iê...
       E              B5(9)
      Chove em mim voce. (3x)
          F#    E   F#
      Iê,Iê,Iê,Iê...
      (Violão 1)
      
      E|---------------|
      B|-9-8-6---8--8--|
      G|-------8-9--9--|
      D|---------------|
      A|---------------|
      E|---------------|
      
      
      (Violão 2)
      
      E|---------------|
      B|-9-7-----7-7---|
      G|-----6-8-8-8---|
      D|---------------|
      A|---------------|
      E|---------------|
      
      
        Composição: Humberto TeixeiraColaboração e revisão:
        • Carla
        • guitar
        • maisse cunha
        • thavinho
        • +3

        Comentários 27

        140 .
        • Luis Luis: Em 22/01/2014 01:07

          o ritmo é mais fácil que da simplificada

        • winningg roulette winningg roulette: Em 15/01/2013 13:50

          ganhar dinheiro com isso, winningroulettestrategy .yolasite. com

        • valdiinho valdiinho: Em 20/09/2011 22:20

          essa cifra é mt lok..
          rsrs...

        • vitorbertoloto vitorbertoloto: Em 21/08/2011 23:03

          caras, vcs sao fodas, o fofão nao toca violão, ele "brinca" de tao foda q ele é
          parabéns :D

        • guigui.ramos guigui.ramos: Em 26/07/2011 22:16

          Muito legal cara e muito bem feito = )

        • bianca992 bianca992: Em 05/06/2011 21:19

          NOSSA QUE ESTRANHO NÃO TEM O ACORDE B5(9) PRA TECLADO ?????????????????????????!!!!!!!!!!!!!!!!!!!!!!!!!!!!!!!!!!!!!!!!!!!!!!!!!!!!!!!!!!!!

        • laygoferreira laygoferreira: Em 13/05/2011 12:05

          eu pensava q esse violão q o Fofão tá era do Patrick, mas a musica ficou legal msm.

        • ghs_ ghs_: Em 20/04/2011 16:39

          então tá errado a forma, agora aprendi a fazer vlw

        • welly10 welly10: Em 01/04/2011 13:20

          b5 da na mesma qe o si ( B)

          • Ale Ale: Em 18/04/2011 14:11

            B5 NÃO É A MESMA COISA!! B5 tem a 1ª, 5ª e 8ª. E o B tem 1ª, 5ª, 1ª, 3ª e 5ª

        140 cancelar

        conseguiu tocar?

        • •••
        duducaloko3.764 visualizações
          ver covers de outras músicas »
          0:00 / 0:00
          1 versão de gaita exibições contribuição e correção
          1 versão de Guitar Proformatodownloadscontribuição
          1 versão de partiturasformatodownloadscontribuição
          play/pausefechar subir/descer velocidade
          6ª corda E5ª corda A4ª corda D3ª corda G2ª corda B1ª corda E
            acordes
            publicidade
            fechar
            ok