Notificações Amigos pendentes

      Jorge e Mateus

      Ciclo

      361.918 exibições
      Tom: B
      Intro:
      
      B11 E9 G#m E9
      
      G#m E9 G#m F# E9
      
      Primeira Parte:
       B5(9)
      Mãe eu quis um tempo pra recomeçar
          E
      Pensei que tinha a vida toda pra pensar
      G#m           F#             E
        Porque era cômodo ficar aqui
       B5(9)
      Mãe a vida me forçou a aprender
       E
      Tudo aquilo que eu ouvia de você
      G#m                 F#
        Mas entre os problemas
                  E
      Eu acho que ainda sei sorrir
      
      
      Segunda Parte:
       C#m
      Mãe pra muita coisa eu sei que demorei
          E
      E quanto tempo isso faz eu já nem sei
           B5(9)             F#               E
      Os anos insistiram em passar, e eu cresci
                 C#m
      Foi quando aprendi voar
                   E            F#
      E o mundo inteiro quis pegar pra mim
      
      
      Refrão 2x:
      B5(9)
        A gente nasce, cresce
       C#m                       B/D#
      Casa, e sonha em ser feliz
                                 C#m
      Por isso eu fui buscar no mundo tudo o que eu quis
       B5(9)                C#m
      Todas as vezes minha mãe que alguém me disse não
      B/D#          C#m
        Você disse sim pro meu coração
      
      
      Repete Intro:
      
       B11 E9 G#m F# E9
      
      
      Repete a Primeira Parte:
       B5(9)
      Mãe chegou o meu futuro e eu não tô só
          E
      Em pouco tempo algúem vai te chamar de vó
      G#m                F#                 E
        O mundo em nove meses torna a renascer
         B5(9)
      O tempo implacável vai continuar
          E
      Deixando sua marca em nosso olhar
      G#m               F#              E
        E com meu filho isso também vai   acontecer
      
      
      Repete a Segunda Parte:
          C#m
      Te juro que a ele eu vou ensinar
          E                             F#
      As coisas que aprendi de tanto ouvir você falar
      
      
      Repete o Refrão 2x:
      B5(9)
        A gente nasce, cresce
       C#m                       B/D#
      Casa, e sonha em ser feliz
                                 C#m
      Por isso eu fui buscar no mundo tudo o que eu quis
       B5(9)                C#m
      Todas as vezes minha mãe que alguém me disse não
      B/D#          C#m
        Você disse sim pro meu coração
      
      
      Terceira Parte:
      
      B5(9) C#m B/D# E F# B5(9)
      
      B5(9) C#m B/D# E B5(9)
      
      
      C5(9) Dm C/E F G C5(9)
      
      C5(9) Dm C/E F C5(9)
      
      F C5(9) 4x
      
      
      Solos:
      
      Introdução:
      
      
      E|----------------------------------------------------|
      B|---------7-7~-------------------------7-7-----------|
      G|-4-6/8/9-------9p8-9-8\6\-4~--4h6/8/9-----9-8\4~----|
      D|----------------------------------------------------|
      A|----------------------------------------------------|
      E|----------------------------------------------------|
      
      
      E|----------------------------------------------------|
      B|------------7-7~----7-7-----------------------------|
      G|---4h6/8/9-------x--8-8--8\6-4----------------------|
      D|-4---------------x----------------------------------|
      A|----------------------------------------------------|
      E|----------------------------------------------------|
      
      
      E|----------------------7/9\7------------------7------|
      B|-------------------7--7/9\7------7-7h9~---10---7~---|
      G|-----4--4h6--4h6/8-----------6/8--------9-----------|
      D|-4h6------------------------------------------------|
      A|----------------------------------------------------|
      E|----------------------------------------------------|
      
      
      
      Repetição da Intro:
      
      
      E|----------------------------------------------------|
      B|---------7-7~------------------------7-7~------x-9\-|
      G|-4-6/8/9-------8/9--8\6\4~---4h6/8/9------8\4~-x-9\-|
      D|---------------------------4-------------------x-9\-|
      A|----------------------------------------------------|
      E|----------------------------------------------------|
      
      
      
      Terceira Parte:
      
      
      E|----------------------------------------------------|
      B|-----------------------------------7-7--------------|
      G|-----4-6-6/8-----4-6-4-----4-6-6/8-8-8-4--4h6-4h6-4-|
      D|-4h6---------4h6-------4h6--------------------------|
      A|----------------------------------------------------|
      E|----------------------------------------------------|
      
      
      E|----------------------------------------------------|
      B|8------------------------------------5-6-8-5-6-8-8-5|
      G|--9-7b8r7\-5---5-7-7/9-----5-7-5-5h7----------------|
      D|-------------7---------5h7--------------------------|
      A|----------------------------------------------------|
      E|----------------------------------------------------|
      
        Composição: Cesar Augusto/Claudio NoamColaboração e revisão:
        • gustavofofao
        • bryanvoltani

        Comentários 66

        140 .
        • jonato.castro jonato.castro: Em 04/05/2016 23:42

          Essa letra é ótima para homenagear o dia das mães

        • jonathannaraujo jonathannaraujo: Em 06/08/2015 18:13

          cade a completaaaaa

        • AlexJr00 AlexJr00: Em 13/05/2014 14:41

          solo mais massa,lindo

        • Railla Railla: Em 09/05/2014 13:33

          quem sabe fazer de outro modo mais facil

        • gustavo gustavo: Em 12/08/2013 17:11

          cade a versao completa ?

        • maycon_fabio maycon_fabio: Em 20/05/2013 12:25

          olhem a versao completa pq ela tem os solos

        • maycon_fabio maycon_fabio: Em 18/05/2013 19:18

          enviei o solo de novo

        • mialmeida mialmeida: Em 15/05/2013 15:21

          Mais um dia das mães sem vídeo aula, vamos esperarr mais um ano pra ver se fazem

        • maycon_fabio maycon_fabio: Em 11/05/2013 20:57

          se

        • Gabriele Gabriele: Em 11/05/2013 16:44

          Quero o solo

        140 cancelar

        conseguiu tocar?

        • •••
        Ana Clara Travassos1.464 visualizações
          ver covers de outras músicas »
          0:00 / 0:00
          Esta versão de cifra não é usada na videoaula. Exiba a cifra correta.
          play/pausefechar subir/descer velocidade
          6ª corda E5ª corda A4ª corda D3ª corda G2ª corda B1ª corda E
            acordes
            transcrição verificada gustavofofao instrutor de violão
            publicidade
            fechar
            ok