Cifra Club

Contrato

Jorge e Mateus

Cifra: Principal (violão e guitarra)
exibições 675.431
Tom: B
[Intro] B  F#  C#m  E  F#

E|----------------------------------------------------|
B|--7/9-7---------------------------------5~-4~-------|
G|--------6/8-6-4-------------------------------------|
D|----------------------4-4-4-4-4-4-6p4---------------|
A|----------------------------------------------------|
E|----------------------------------------------------|

E|----------------------------------------------------|
B|-5/7-7-7-5-4----------------------------------------|
G|--------------6-6-----------------------------------|
D|---------------------9-8--4/6-4---------------------|
A|----------------------------------------------------|
E|----------------------------------------------------|

E|----------------------------------------------------|
B|-7-7-7-5-4---5----7-7-7-5-4---5---------------------|
G|-----------6----------------6-----------------------|
D|----------------------------------------------------|
A|----------------------------------------------------|
E|----------------------------------------------------|

E|----------------------------------------------------|
B|---5-5-4-2---2h4------2h4--2h4-2--------------------|
G|-----------4----------------------------------------|
D|----------------------------------------------------|
A|----------------------------------------------------|
E|----------------------------------------------------|

[Primeira Parte]

                     E   F#
Eu vou fazer um contrato
              B
Se liga nas cláusulas
           E    F#             B
Assina em baixo,   e não muda nada

[Segunda Parte]

                            E                    F#
Vai ter que acordar com um beijo todo dia de manhã
                   G#m
E aceitar café na cama com chazinho de hortelã
                      E                      F#
Ganhar massagem no pezinho na banheira de espuma
                G#m
E depois do jantar a louça é minha e não é sua
                 E       F#
Já vou deixando bem claro

[Refrão]

                     B
Esse contrato é vitalício
                  F#
Cê tá amarrada aqui comigo
                      C#m                    E
Nesse contrato da paixão, a rescisão é 1 milhão
                     F#
De onde cê vai tirar isso
                    
                     B
Esse contrato é vitalício
                  F#
Cê tá amarrada aqui comigo
                      C#m                    E
Nesse contrato da paixão, a rescisão é 1 milhão
                     F#
De onde cê vai tirar isso
               B
Cê tá amarrada aqui comigo

[Solo] B  F#  C#m  E  F# 

E|----------------------------------------------------|
B|----------------------------------------5~-4~-------|
G|----------------------------------------------------|
D|----------------------4-4-4-4-4-4-6p4---------------|
A|----------------------------------------------------|
E|----------------------------------------------------|

E|----------------------------------------------------|
B|-5/7-7-7-5-4----------------------------------------|
G|--------------6-6-----------------------------------|
D|---------------------9-8--4/6-4---------------------|
A|----------------------------------------------------|
E|----------------------------------------------------|

E|----------------------------------------------------|
B|-7-7-7-5-4---5----7-7-7-5-4---5---------------------|
G|-----------6----------------6-----------------------|
D|----------------------------------------------------|
A|----------------------------------------------------|
E|----------------------------------------------------|

E|----------------------------------------------------|
B|---5-5-4-2---2h4------2h4--2h4-2--------------------|
G|-----------4----------------------------------------|
D|----------------------------------------------------|
A|----------------------------------------------------|
E|----------------------------------------------------|

[Primeira Parte]

                     E   F#
Eu vou fazer um contrato
              B
Se liga nas cláusulas
           E    F#             B
Assina em baixo,   e não muda nada

[Segunda Parte]

                            E                    F#
Vai ter que acordar com um beijo todo dia de manhã
                   G#m
E aceitar café na cama com chazinho de hortelã
                      E                      F#
Ganhar massagem no pezinho na banheira de espuma
                G#m
E depois do jantar a louça é minha e não é sua
                 E       F#
Já vou deixando bem claro

[Refrão]

                     B
Esse contrato é vitalício
                  F#
Cê tá amarrada aqui comigo
                      C#m                    E
Nesse contrato da paixão, a rescisão é 1 milhão
                     F#
De onde cê vai tirar isso
                    
                     B
Esse contrato é vitalício
                  F#
Cê tá amarrada aqui comigo
                      C#m                    E
Nesse contrato da paixão, a rescisão é 1 milhão
                     F#
De onde cê vai tirar isso
               B
Cê tá amarrada aqui comigo

                     B
Esse contrato é vitalício
                  F#
Cê tá amarrada aqui comigo
                      C#m                    E
Nesse contrato da paixão, a rescisão é 1 milhão
                     F#
De onde cê vai tirar isso
                    
                     B
Esse contrato é vitalício
                  F#
Cê tá amarrada aqui comigo
                      C#m                    E
Nesse contrato da paixão, a rescisão é 1 milhão
                     F#
De onde cê vai tirar isso
               B
Cê tá amarrada aqui comigo

[Final] B 

E|--------------------------------------------------|
B|------------- ---5-4-----------7/9-7--------------|
G|--------------------------------------8--6h8p6-4--|
D|--4-4-4-4-4-6p4-----------------------------------|
A|--------------------------------------------------|
E|--------------------------------------------------|

E|--------------------------------------------------|
B|--7/9-7-------------------------------------------|
G|--------8--6h8p6-4--------------------------------|
D|--------------------------------------------------|
A|--------------------------------------------------|
E|--------------------------------------------------|
Acordes para:

    0 comentários

    mostrar mais comentários

    Conseguiu tocar?

    45 tocaram 15 ainda não

    Grave um vídeo tocando Contrato e mande pra gente!

    00:00 / 00:00
    outros vídeos desta música
    repetir qualidade Automático
    Outros vídeos desta música
    00:00 / 00:00
    Automático
    OK