Cifra Club

Duas Metades

Jorge e Mateus

Cifra: Principal (violão e guitarra)
exibições 1.408.958
Tom: G
[Intro] Am7  G/B  D  G/B  A  G  G/F#  C9  D

[Primeira Parte]

  G                      C9
Pra falar do amor de verdade
     G                     C9  G/B
Vou começar pela melhor metade
 Am                 G/B     C9   G/B
Te mostrar tudo de bom que tenho
Am                   G/B C9
E se for preciso eu de__senho
         G
Que eu amo você
         D
Que eu quero você

G                   C9
A outra metade é defeito
 G                          C9
Você vai saber de qualquer jeito
        G             D
Anjo ou animal, suave ou fatal

[Segunda Parte]

Am                   G/B      C9
O que de um grande amor se espera
                 G/B  
É que tenha fogo
  Am               G/B
Que domine o pensamento
C9          D5(9)  D  D4  D
E traga sentido novo

  G           D
Que tenha paixão, desejo
  Em         C9     G/B
Que tenha abraço e beijo
Am                  G/B  C9  D5(9) D D4 D
E seja a melhor sensa___ção
      G           D
Que preencha a vida vazia
 Em            C9  G/B
Mande embora a agonia
Am                   G/B C9
E que traga paz pro coração

[Refrão]

D5(9) D D4 D   G G5(7M) G5(6) G5(7M)
        É vo__cê
     G G5(7M) G  C9
É você

[Terceira Parte]

      G           D
Que preenche a vida vazia
 Em            C9   G/B
Manda embora a agonia
Am                    G/B C9  D5(9) D D4 D 
E que trouxe paz pro coração
      G           D
Que preenche a vida vazia
 Em            C9    G/B
Manda embora a agonia
Am                   G/B C9 
E que é dona do meu coração

[Refrão]

D5(9) D D4 D   G G5(7M) G5(6) G5(7M)
        É vo__cê
     G G5(7M) G  C9
É você

[Primeira Parte]

  G                      C9
Pra falar do amor de verdade
     G                     C9  G/B
Vou começar pela melhor metade
 Am                 G/B     C9   G/B
Te mostrar tudo de bom que tenho
Am                   G/B C9
E se for preciso eu de__senho
         G
Que eu amo você
         D
Que eu quero você

G                   C9
A outra metade é defeito
 G                          C9
Você vai saber de qualquer jeito
        G             D
Anjo ou animal, suave ou fatal

[Segunda Parte]

Am                   G/B      C9
O que de um grande amor se espera
                 G/B  
É que tenha fogo
  Am               G/B
Que domine o pensamento
C9          D5(9)  D  D4  D
E traga sentido novo

  G           D
Que tenha paixão, desejo
  Em         C9     G/B
Que tenha abraço e beijo
Am                  G/B  C9  D5(9) D D4 D
E seja a melhor sensa___ção
      G           D
Que preencha a vida vazia
 Em            C9  G/B
Mande embora a agonia
Am                   G/B C9
E que traga paz pro coração

[Refrão]

D5(9) D D4 D   G G5(7M) G5(6) G5(7M)
        É vo__cê
     G G5(7M) G  C9
É você

[Terceira Parte]

      G           D
Que preenche a vida vazia
 Em            C9   G/B
Manda embora a agonia
Am                    G/B C9  D5(9) D D4 D 
E que trouxe paz pro coração
      G           D
Que preenche a vida vazia
 Em            C9    G/B
Manda embora a agonia
Am                   G/B C9 D
E que é dona do meu coração

[Refrão]

     G G5(7M) G5(6) G5(7M)
É você
     G G5(7M) G  C9
É você

[Primeira Parte]

  G                      C9
Pra falar do amor de verdade
     G                     C9  G/B
Vou começar pela melhor metade

( Am7  G/B  D  G/B  A  G  G5/F#  C9  D  G )

(Violão 2)

[Intro]

E|--------------------------------------10-10h12------|
B|-10/12---13--12--10--8h10--12--10--8--7--------10---|
G|-------------12--11--------12--11--9--7--12----7----|
D|---------14--12--12----------------------10----7----|
A|----------------------------------------------------|
E|----------------------------------------------------|

[Primeira Parte]

E|-7--10---------------7-10--------10------8--8-------|
B|-8-----10-8---8--10--8-----10--8-----10--8--8-------|
G|-7--------9---9------7---------9---------9--9-------|
D|----------------------------------------------------|
A|----------------------------------------------------|
E|----------8--------------------8--------------------|

E|----------------3-----------7--7--5-----------------|
B|-------------------3-----5--8--8--5-5---8-----7-----|
G|-9--9--9--7---5-------4--5--7--7--5---5---5---------|
D|----------------------------------0---------0-------|
A|-------------------------3--------------------------|
E|-8--8--8--7---5-------------------------------------|

E|------------5/7------------------------------------|
B|-----5---------------------------------------------|
G|-5-----5----5/7------------------------------------|
D|---0-----0-----------------------------------------|
A|---------------------------------------------------|
E|---------------------------------------------------|

[Segunda Parte]

E|--0-----8-8-8--7-5---------------------------------|
B|--1----------------8-5--3--3-1--1--3---5-5--5-5----|
G|--2------------------5--0--0-2--2--0---5-5--5-5----|
D|--2------------------5--0--0-2--2--0---------------|
A|--0---------------------3--2-0--0--2---3-3--3-3----|
E|---------------------------------------------------|

E|---------------------------------------------------|
B|-5-7--7-7------------------------------------------|
G|-5-7--7-7------------------------------------------|
A|-3-5--5-5------------------------------------------|
E|---------------------------------------------------|

E|-10-10-10-10---8-8-8-8---7-7-7-7--8--7--8--7-------|
B|-8--8--8--8----8-8-8-8---8-8-8-8--8--8--8--8-------|
G|-7--7--7--7----7-7-7-7---7-7-7-7--7--7--7--7-------|
D|---------------------------------------------------|
A|---------------------------------------------------|
E|---------------------------------------------------|

E|-----3--3-3-3--0--0-0-0----------------------------|
B|-1-3-3--3-3-3--3--3-3-3----------------------------|
G|-2-0-0--0-0-0--0--0-0-0----------------------------|
D|-2-0-2--2-2-2--4--4-4-4----------------------------|
A|-0-2-3--3-3-3--5--5-5-5----------------------------|
E|---------------------------------------------------|

E|-----1--1-1-1-0--0-0-0-----------------------------|
B|-1-3-3--3-3-3/3--3-3-3-----------------------------|
G|-2-0-0--0-0-0-0--0-0-0-----------------------------|
D|-2-0-2--2-2-2/4--4-4-4-----------------------------|
A|-0-2-3--3-3-3/5--5-5-5-----------------------------|
E|---------------------------------------------------|

E|--------0-0-0-0--0-0-0-----------------------------|
B|-1---1--3-3-3/3--3-3-3-----------------------------|
G|-2-0-0--0-0-0-0--0-0-0-----------------------------|
D|-2-0-2--2-2-2/4--4-4-4-----------------------------|
A|-0-2-3--3-3-3/5--5-5-5-----------------------------|
E|---------------------------------------------------|

[Refrão]

E|-3--3-3-3--2---------------------------------------|
B|-3--3-3-3--3--3/5--3--1-0--------------------------|
G|-0--0-0-0--2---------------2--2/4-----7---7h9~-----|
D|-0--0-0-0--0----------------------7h9---9----------|
A|-2--2-2-2------------------------------------------|
E|-3--3-3-3------------------------------------------|

[Final]

E|--------------------------------------10-10h12-----|
B|-10/12---13--12--10--8h10--12--10--8--7--------10--|
G|-------------12--11--------12--11--9--7--12----7---|
D|---------14--12--12----------------------10----7---|
A|---------------------------------------------------|
E|---------------------------------------------------|

E|-------5-5/7---------------------------------------|
B|-----8---8-----------------------------------------|
G|---7-----7-----------------------------------------|
D|-0-------0-----------------------------------------|
A|---------------------------------------------------|
E|---------------------------------------------------|
Acordes para:
    Composição: Jorge Alves Barcelos Colaboração e revisão:

    0 comentários

    mostrar mais comentários

    Conseguiu tocar?

    84 tocaram 4 ainda não

    Grave um vídeo tocando Duas Metades e mande pra gente!

    00:00 / 00:00
    outros vídeos desta música
    repetir qualidade Automático
    Outros vídeos desta música
    00:00 / 00:00
    Automático
    Capítulos
    • Início
    • Tocando a música
    • Acordes da Introdução e Primeira Parte
    • Tocando Introdução e Primeira Parte
    • Ensinando Introdução - Violão Solo
    • Ensinando Primeira Parte - Violão Solo
    • Ensinando Ritmo da Introdução
    • Ensinando Ritmo da Primeira Parte
    • Acordes da Segunda Parte
    • Tocando Segunda Parte
    • Ensinando Ritmos da Segunda Parte
    • Ensinando Segunda Parte - Violão Solo
    • Acordes do Refrão
    • Tocando Refrão
    • Ensinando Ritmo do Refrão
    • Ensinando Variações do Refrão
    • Tocando Repetições
    • Ensinando Ritmo do Final
    • Ensinando Final - Violão Solo
    • Encerramento
    OK