Cifra Club

Efeitos

Jorge e Mateus

Cifra: Principal
exibições 640.615
Tom: F

Intro: Dm  C  Bb
E|--------------------------------------|
B|--------------------------------------|
G|--5/7--7/9--9/10--10/12-12-10--10-----|
D|---0----0----0---------------12--12-10|
A|--------------------------------------|
E|--------------------------------------|


Dm                    C        F
Seus efeitos ainda dominam em mim
                                  C
As lembranças só me distanciam do fim
              Bb        C            Dm   ( Bb  C )
da batalha cravada em tentar te esquecer

Dm                             C         F
Te vejo nos meus sonhos me devolvendo o céu
                               C
E não sinto na boca o gosto do mel
                 Bb         C         Dm
que eu sentia sempre que beijava você

Bb                              C    Dm
Só sei que esse romance ainda vive em mim
                            C     Bb       C
O efeito do seu beijo me deixou assim, assim

Refrão:
F                               Bb      C
Preciso de um remédio que cure essa saudade
                                     Dm
Que diminua a dor que no meu peito invade
                                     Bb     C
Que me cure ou me ajude a esquecer, iêee, iêee

F                                 Bb   C
Preciso de um antídoto que salve esse amor
                                   Dm
Que tire os sintomas que me causam dor
                            Bb
Eu não sei mais o que vou fazer
                      C        F  C  (Intro)
se pra curar o meu remédio é você

Solo 2x:

E|----------------------------------------------------------------|
B|----------------------------------------------------------------|
G|--5/7--7/9--9/10--10/12---12-10-12-10---------------------------|
D|---0----0----0------0------------------10h12-12-10----10--------|
A|---------------------------------------------------12----12-10--|
E|----------------------------------------------------------------|
Acordes para:
    Colaboração e revisão:

    0 comentários

      mostrar mais comentários

      Conseguiu tocar?

      67tocaram0ainda não

      Grave um vídeo tocando Efeitos e mande pra gente!

      00:00 / 00:00
      outros vídeos desta música
      repetirqualidadeautomática
      Outro vídeos desta música
        00:00 / 00:00
        automática
        OK