Cifra Club

Eu Respiro Você

Jorge e Mateus

Cifra: Principal
exibições 291.495
Tom: C
Intro 2x: G C Em D

E|--------------------------------8--7------------|
B|-----8--8--10~--8--------8---8--8----8--8h10----|
G|-7/9---9-------------7/9---9----7---------------| (2x)
D|------------------------------------------------|
A|------------------------------------------------|
E|------------------------------------------------|


G              C
O tempo para, não sei porque
 Em                     D
Quando estou perto de você
G              C
Um sentimento, que me faz bem
 Em                     D
Ao teu lado eu não preciso de ninguém
Am                    F
Quando eu te chamo, você responde
Am                 D
E eu me perco se você se esconde
Am                    F
Se tenho forças, são todas suas
Am                 D
Eu sem você sou como céu sem lua
          C                  Em
Mas é tão bom o que estou sentindo
          C                  Em
Tudo é tão bom, te vendo sorrindo
            C                D
Preciso de você, te fazer feliz,
         G    D
Me faz viver...

G              D   C                  G D
Sigo vivendo você, vivo pra poder te ter
     Em         A
Meu ar, to precisando respirar
     C               D
Mas sem você não consigo.

G                 D       C                 G D
Vivo pensando em você, é impossível te esquecer
     Em           A
Meu bem, eu sem você não sou ninguém
       C              G
Te quero pra sempre comigo.

   ( G C Em D ) (2x)
E|--------------------------------8--7----------------------|
B|-----8--8--10^--8--------8---8--8----8--8/10---10^--8--8--|
G|-7h9---9-------------7h9---9-------------------------9----|
D|----------------------------------------------------------|
A|----------------------------------------------------------|
E|----------------------------------------------------------|

(repete tudo)

     Em           A
Meu bem, eu sem você não sou ninguém
       C      D        G
Te quero pra sempre comigo.

(arranjo no final)
E|--------------------------------8--7-----------------------|
B|-----8--8--10~--8--------8---8--8----8--8/10---11~-10-8--8-|
G|-7/9---9-------------7/9---9----7----------------------9---|
Acordes para:

    0 comentários

      mostrar mais comentários

      Conseguiu tocar?

      27tocaram0ainda não

      Grave um vídeo tocando Eu Respiro Você e mande pra gente!

      00:00 / 00:00
      outros vídeos desta música
      repetirqualidadeautomática
      Outro vídeos desta música
        00:00 / 00:00
        automática
        OK