Cifra Club

Fica Combinado

Jorge e Mateus

Cifra: Principal
exibições 248.852
Tom: G
Intro 2x: G  D/F#  Em  A  C  D  G

Solo:
E|--10-10-10-10b12-10-------------------------------|
B|--------------------12-10---8-8-5-8-10-10b12-10-8-|
G|--------------------------------------------------|
D|--------------------------------------------------|
A|--------------------------------------------------|
E|--------------------------------------------------|

E|--------------------------------------------------|
B|--8-5-8-5-8-10-13---12-10-8-5-8-8b10-8-8----------|
G|--------------------------------------------------|
D|--------------------------------------------------|
A|--------------------------------------------------|
E|--------------------------------------------------|

E|--10-10-10-10b12-10-------------------------------|
B|--------------------12-10---8-8-5-8-10-10b12-10-8-|
G|--------------------------------------------------|
D|--------------------------------------------------|
A|--------------------------------------------------|
E|--------------------------------------------------|

E|--------------------7-8-7-------------------------|
B|-------7/8-10-8-10---------5-3-3/5-3--------------|
G|--7/9---------------------------------4-----------|
D|-----------------------------------------5--------|
A|--------------------------------------------------|
E|--------------------------------------------------|

         G               D/F#     Em
Não faz charme, não me esnoba
                     A7               D
Eu tirei dez na sua prova de sedução!!!
 C                                            D
Ja li mais de um milhão de palavras nos teus olhos
       G             D/F#       A7
Ja percebi o calor saindo pelos poros
       C
Não precisa dizer nada
           Am                         D
So não se esqueça como é curta a madrugada e vem

(refrão)
 G        D/F#              G
Mas se quiser tem que ser agora
  D/F#     Em          E7          Am
Depois não da eu tenho que ir embora
                      C
Não sei quando vou voltar
          A7                      C
Fica combinado a gente mata a vontade
                      D                          G
Deixa um lugar pra saudade e tenta não se apaixonar

 G        D/F#              G
Mas se quiser tem que ser agora
   D/F#     Em          E7          Am
Depois não da eu tenho que ir embora
                      C
Não sei quando vou voltar
           A7                      C
Fica combinado a gente mata a vontade
                      D                          G
Deixa um lugar pra saudade e tenta não se apaixonar

Solo:
E|--10-10-10-10b12-10-------------------------------|
B|--------------------12-10---8-8-5-8-10-10b12-10-8-|
G|--------------------------------------------------|
D|--------------------------------------------------|
A|--------------------------------------------------|
E|--------------------------------------------------|

E|--------------------7-8-7-------------------------|
B|-------7/8-10-8-10---------5-3-3/5-3--------------|
G|--7/9---------------------------------4-----------|
D|-----------------------------------------5--------|
A|--------------------------------------------------|
E|--------------------------------------------------|

(repete tudo - sem o 2º  solo)

           A                      C
Fica combinado a gente mata a vontade
                      D                          G
Deixa um lugar pra saudade e tenta não se apaixonar

Solo:
E|--10-10-10-10b12-10-------------------------------|
B|--------------------12-10---8-8-5-8-10-10b12-10-8-|
G|--------------------------------------------------|
D|--------------------------------------------------|
A|--------------------------------------------------|
E|--------------------------------------------------|

E|--------------------------------------------------|
B|--8-5-8-5-8-10-13---12-10-8-5-8-8b10-8-8----------|
G|--------------------------------------------------|
D|--------------------------------------------------|
A|--------------------------------------------------|
E|--------------------------------------------------|

E|--10-10-10-10b12-10-------------------------------|
B|--------------------12-10---8-8-5-8-10-10b12-10-8-|
G|--------------------------------------------------|
D|--------------------------------------------------|
A|--------------------------------------------------|
E|--------------------------------------------------|

E|--------------------7-8-7-------------------------|
B|-------7/8-10-8-10---------5-3-3/5-3--------------|
G|--7/9---------------------------------4-----------|
D|-----------------------------------------5--------|
A|--------------------------------------------------|
E|--------------------------------------------------|
Acordes para:
    Colaboração e revisão:
    • Paula Bernardi

    0 comentários

      mostrar mais comentários

      Conseguiu tocar?

      11tocaram1ainda não

      Grave um vídeo tocando Fica Combinado e mande pra gente!

      00:00 / 00:00
      outros vídeos desta música
      repetirqualidadeautomática
      Outro vídeos desta música
        00:00 / 00:00
        automática
        OK