Cifra Club

Nocaute

Jorge e Mateus

Cifra: Principal
exibições 2.382.336
Tom: C
Introdução 2x: Am7  C

E|------------------------------------------|
B|--x--x--x--x------------------------------|
G|--x--x--x--x------------------------------|
D|--x--x--x--x------------------------------|
A|--x--x--x--x------------------------------|
E|------------------------------------------|

    Am7
E|------8--8-8---x-x------------------------|
B|------8--8-8---x-x------------------------|
G|------5--5-5---x-x------------------------|
D|------7--7-7---x-x------------------------|
A|--0-0-------------------------------------|
E|--------------------8\--------------------|

       C                     H.N
E|------------------------------------------|
B|------------------------------------------|
G|---------0-------0h2--0----5--------------|
D|-------2-----0h2-----------5--------------|
A|-0h2-3---------------------5--------------|
E|------------------------------------------|

    Am7
E|------8--8-8---x-x------------------------|
B|------8--8-8---x-x------------------------|
G|------5--5-5---x-x------------------------|
D|------7--7-7---x-x------------------------|
A|--0-0-------------------------------------|
E|--------------------8\--------------------|

       C
E|------------------------------------------|
B|------------------------------------------|
G|---------0-------0h2-0--2p0---------------|
D|-------2-----0h2------------2p0-----------|
A|-0h2-3------------------------------------|
E|------------------------------------------|


Primeira Parte:
      Am7
Olha aí, o mundo girando
                   C
E a gente se esbarrando outra vez
         Am7
Olha aí,     o meu coração
                 C
Indo contra a razão sentimento
                 

Segunda Parte:
           Dm
Não se desfez, recaí 
           F9
Quando te vi
                 G9
A paixão veio a tona
         Dm
Fui a nocaute, beijei a lona
       F9       G9
O meu corpo tremeu
   F9              G9
O tempo passou, a vida mudou
F9             G9
  Mas eu continuo seu


Refrão:
             Dm
Ainda sou o mesmo
            F7M/C
Bobo apaixonado
               C
Se eu estou errado
                 G
Não quero nem saber
                 Dm
Eu só sei que a vida
            F7M/C
É mais colorida 
       C         G
Com você, com você, iê iê


Repete a Intro 4x: Am7 C


Repete a Primeira Parte:
      Am7
Olha aí, o mundo girando
                   C
E a gente se esbarrando outra vez
         Am7
Olha aí,     o meu coração
                 C
Indo contra a razão sentimento
                 

Repete a Segunda Parte:
           Dm
Não se desfez, recaí 
           F9
Quando te vi
                 G9
A paixão veio a tona
         Dm
Fui a nocaute, beijei a lona
       F9       G9
O meu corpo tremeu
   F9              G9
O tempo passou, a vida mudou
F9             G
  Mas eu continuo seu

Refrão Final:
            Dm
Ainda sou o mesmo
            F7M/C
Bobo apaixonado
               C
Se eu estou errado
                 G
Não quero nem saber
                 Dm
Eu só sei que a vida
            F7M/C
É mais colorida 
       C         G
Com você, com você

           Dm
Ainda sou o mesmo
            F7M/C
Bobo apaixonado
               C
Se eu estou errado
                 G
Não quero nem saber
                 Dm
Eu só sei que a vida
            F7M/C
É mais colorida 
       C         G
Com você, com você
       
Com você, com você
Acordes para:

    0 comentários

      mostrar mais comentários

      Conseguiu tocar?

      126tocaram12ainda não

      Grave um vídeo tocando Nocaute e mande pra gente!

      00:00 / 00:00
      outros vídeos desta música
      repetirqualidadeautomática
      Outro vídeos desta música
        00:00 / 00:00
        automática
        Capítulos
        • Tocando a Música
        • Dicas Iniciais / Equipamentos
        • Acordes Introdução e Primeira Parte
        • Tocando Introdução
        • Introdução - Parte 1 de 5
        • Introdução - Parte 2 de 5
        • Introdução - Parte 3 de 5
        • Introdução - Parte 4 de 5
        • Introdução - Parte 5 de 5
        • Acordes Segunda Parte
        • Tocando Segunda Parte
        • Ensinado Ritmo Segunda Parte
        • Acordes Refrão
        • Tocando Refrão
        • Acordes Refrão Final
        • Tocando Refrão Final
        • Ritmo Refrão Final
        • Encerramento
        • Ficha Técnica
        OK