Cifra Club

Aprenda

O Que É Que Tem?

Jorge & Mateus

Tab de baixo: Principal
Já pensou em usar uma coleção de roupas do Cifra Club? Responda as perguntas abaixo e nos ajude nessa missão! →
Refrão
E quando o Sol chegar a gente ama de novo
G|------------------------|
D|------------------------|
A|---5~------5~----5~-----|
E|-3~---5~-3~----3~----5*-|

Eu quero ser lembrando com você
G|-------|     G|----|
D|-------|     D|----|
A|-3-5-0-|(3x) A|3-5-|
E|-------|     E|----|

Verso
E pra deixar acontecer
G|------------------|
D|------------------|
A|-----5*-----3*-5*-|
E|/3-------57-------|

Nós livres pra voar
G|------------------------------------------|
D|------------------------------------------|
A|--------3-5*--------3-5*-------3---5*-3-5-|
E|-5*-3*-5-----5*-55-7----5*-55-7-3*--------|

Refrão(2X)
E quando o Sol chegar a gente ama de novo
G|------------------------|
D|------------------------|
A|---5*------5*----5*-----|
E|-3*---5*-3*----3*----5*-|

Eu quero ser lembrando com você
G|-------|     G|----|
D|-------|     D|----|
A|-3-5-0-|(3x) A|3-5-|
E|-------|     E|----|
 
Começa no primeiro refrão
Ela bem simples é só seguir o ritmo
(*)tocar varias vezes na corda
Composição de Jorge Alves Barcelos
Colaboração e revisão:
  • andersonsensualize
3.888 exibições

0 comentários

Ver todos os comentários
00:00 / 00:00
Outros vídeos desta música
Repetir Qualidade Automático
Outros vídeos desta música
00:00 / 00:00
Automático

Cifra Club Pro

Aproveite o Cifra Club com benefícios exclusivos e sem anúncios
Cifra Club Pro
Aproveite o Cifra Club com benefícios exclusivos e sem anúncios
OK