Notificações Amigos pendentes

      Jorge e Mateus

      Pensa Em Mim

      13.033 exibições
      Tom: D
      (intro 2x) F#m  D  A  E
      
      
          F#m
      E|------------------------------------|
      B|-5--------5--------5----------------|
      G|----2--------2----------------------|
      D|-4-----4--------4-------------------|
      A|------------------------------------|
      E|------------------------------------|
      
      
            D
      E|--------------------------------------|
      B|--5--------5--------5-----------------|
      G|-----2--------2-----------------------|
      D|--0-----0--------0--------------------|
      A|--------------------------------------|
      E|--------------------------------------|
      
      
            A
      E|--------------------------------------|
      B|--2-----------------2-----------------|
      G|-----2-----------2--------------------|
      D|--------2-----2-----------------------|
      A|--4--------0--------------------------|
      E|--------------------------------------|
      
      
            E
      E|--------------------------|
      B|--0-----------------0-----|
      G|-----1-----------1--------|
      D|--------2-----2-----------|
      A|--2-----------------------|
      E|-----------4--------------|
      
      
            F#m                     D
      E|-----------4--2---------------------0-----|
      B|--------2--------2--------3---------------|
      G|-----2--------------2--------2------------|
      D|--4-----------------------------0---------|
      A|------------------------------------------|
      E|------------------------------------------|
      
      
            A
      E|-----------------------------------------|
      B|-----------------------------------------|
      G|--7--6--2--6--4--1-----------------------|
      D|--9--7--4--7--6--2-----------------------|
      A|-----------------------------------------|
      E|-----------------------------------------|
      
      
      F#m                        D                    A
          Inspiração dos meus sonhos não quero acordar
      
      
          F#m                    D                      A
      E|-------------------------------------------------------------------------|
      B|-5--------5--------5---5--------5--------5----2-----------------2--------|
      G|----2--------2------------2--------2-------------2-----------2-----------|
      D|-4-----4--------4------0-----0--------0-------4-----2-----2--------------|
      A|-------------------------------------------------------0-----------------|
      E|-------------------------------------------------------------------------|
      
      
                           E                   F#m
      Quero ficar só contigo não vou poder voar
      
      
            E                      F#m
      E|--------------------------------------------------|
      B|--0-----------------0-----5--------5--------5-----|
      G|-----1-----------1-----------2--------2-----------|
      D|--------2-----2-----------4-----4--------4--------|
      A|--2-----------------------------------------------|
      E|-----------4--------------------------------------|
      
                              D                       A
      Por que parar pra refletir se meu reflexo é você?
      
      
            D                      A
      E|----------------------------------------------------|
      B|--5--------5--------5----2-----------------2--------|
      G|-----2--------2-------------2-----------2-----------|
      D|--0-----0--------0-------4-----2-----2--------------|
      A|----------------------------------------------0-----|
      E|----------------------------------------------------|
      
      
                            E                       F#m
      Aprendendo uma só vida  compartilhando prazer
      
      
            E                      F#m
      E|--------------------------------------------------|
      B|--0-----------------0-----5--------5--------5-----|
      G|-----1-----------1-----------2--------2-----------|
      D|--------2-----2-----------4-----4--------4--------|
      A|--2-----------------------------------------------|
      E|-----------4--------------------------------------|
      
      
                               D                      A
      Por que parece que na hora eu não vou aguentar?
      
      
            D                      A
      E|----------------------------------------------------|
      B|--5--------5--------5----2-----------------2--------|
      G|-----2--------2-------------2-----------2-----------|
      D|--0-----0--------0-------4-----2-----2--------------|
      A|----------------------------------------------0-----|
      E|----------------------------------------------------|
      
      
                            E                       F#m
      Se eu sempre tive força e nunca parei de lutar?
      
      
            E                      F#m
      E|--------------------------------------------------|
      B|--0-----------------0-----5--------5--------5-----|
      G|-----1-----------1-----------2--------2-----------|
      D|--------2-----2-----------4-----4--------4--------|
      A|--2-----------------------------------------------|
      E|-----------4--------------------------------------|
      
      
                           D                      A
      Como num filme  no final tudo vai dar certo
      
      
            D                      A
      E|----------------------------------------------------|
      B|--5--------5--------5----2-----------------2--------|
      G|-----2--------2-------------2-----------2-----------|
      D|--0-----0--------0-------4-----2-----2--------------|
      A|----------------------------------------------0-----|
      E|----------------------------------------------------|
      
      
                                     E                     F#m
      Quem foi que disse que pra tá junto precisa tá perto
      
      
            E                      F#m
      E|--------------------------------------------------|
      B|--0-----------------0-----5--------5--------5-----|
      G|-----1-----------1-----------2--------2-----------|
      D|--------2-----2-----------4-----4--------4--------|
      A|--2-----------------------------------------------|
      E|-----------4--------------------------------------|
      
      
      (ritimo) (2pb-2pc-1pb-1pc)
      (pracima=pb-pra-baixo=pb)
      
      
                    D
      Pensa em mim
                               A
      Que eu tô pensando em você
                  E
      E me diz...
                            F#m
      O que eu quero te dizer
                  D
      Vem pra cá
                              A
      Pra ver que juntos estamos
                 E
      E te falar
                              F#m
      Mais uma vez que te amo
      
      (F#m  D  A  E) (2x)
      
      F#m                          D                       A
          O tempo que passamos juntos vai ficar pra sempre
                          E                         F#m
      Intimidades  brincadeiras  só a gente entende
                               D                       A
      Pra quem fala que namorar é perder tempo eu digo:
                                  E                        F#m
      Há muito tempo eu não crescia o que eu cresci contigo
      
                             D                     A
      Juntos no balanço da rede  sob o céu estrelado
                                  E                         F#m
      Sempre acontece  o tempo pára quando eu tô do seu lado
                                D                         A
      A noite chega eu fecho os olhos e é você que eu vejo
                                E                           F#m
      Como eu queria estar contigo eu paro e faço um desejo
      
                    D
      Pensa em mim
                              A
      Que eu tô pensando em você
                E
      E me diz
                            F#m
      O que eu quero te dizer
                   D
      Vem pra cá
                              A
      Pra ver que juntos estamos
                 E
      E te falar
                              F#m
      Mais uma vez que te amo (4x)
      
      D  A  E                       F#m
               Mais uma vez que te amo...
      
      (solo)
      (vai Crescendo em C#7 )
      
                                                                                           C#7
      E|----5----5------5---5------4---4---------2-----2----5----5-----5---5-----4---4----4--------|
      B|----------------------------------------------------------------------------------4--6-----|
      G|--7---7-----7-6---6----6-4---4----4--1/2----2----7----7----7-6---6---6-4---4---4--4--------|
      D|----------------------------------------------------------------------------------4--6-----|
      A|----------------------------------------------------------------------------------4--------|
      E|----------------------------------------------------------------------------------4--------|
      
        Composição: Bernardo Faria / Conrado D'ÁvilaColaboração e revisão:
        • kiko

        Comentários 0

        140 .
        140 cancelar

        conseguiu tocar?

        Leandro Arbigaus965 visualizações
          ver covers de outras músicas »
          0:00 / 0:00

          Capítulos

            play/pausefechar subir/descer velocidade
            6ª corda E5ª corda A4ª corda D3ª corda G2ª corda B1ª corda E
              acordes
              publicidade
              fechar
              ok