Cifra Club

Pirraça

Jorge e Mateus

Cifra: Principal
exibições 557.315
Tom: E
(intro)  ( A B E ) ( A E )

E|------------------------------|
B|------------------------------|
G|------------------------------|
D|------------------------------|
A|------------2-4-2--4-6-7-7-7--|
E|--0-2-4-5---------------------|

           A      B     E         A    B       E
E|-12-11-7-9--7-9-7h9p7---12-11-7-9--7-9-7h9p7----------
B|----------------------9----------------------9--------
G|------------------------------------------------------
D|------------------------------------------------------
A|------------------------------------------------------
E|------------------------------------------------------

             A           E         A            E
E|------------------------------------------------------
B|-5-7-9-10--10-9-5h7-5--5-7-9-10--10-9-5h7-5--5-4-2----
G|---------------------------------------------------4--
D|------------------------------------------------------
A|------------------------------------------------------
E|------------------------------------------------------

E                        C#m
Vou pagar promessas de joelho
 A                  B
Só pra esquecer você
E                          C#m
Vou passar uns dias lá na lua
A                     B
Eu não quero mais te ver

G#m                    C#m         G#m
Vou falar pro meu coração bater o pé
                      C#m
Pra não morrer de paixão, não quero
A                    B
Mais esse amor, que me faz tão mal
A                    B             E
Chega de sofrer... adeus, ponto final

(refrão)
                 A    B       E
Não vou mais chorar, como chorei
            A           B       E
Nem me lembrar, que um dia te amei
             G#m             C#m
Bye Bye tristeza, adeus solidão
              A        B       E
Vou fazer pirraça pro seu coração  (2x)

(intro)
Acordes para:

    0 comentários

      mostrar mais comentários

      Conseguiu tocar?

      36tocaram0ainda não

      Grave um vídeo tocando Pirraça e mande pra gente!

      00:00 / 00:00
      outros vídeos desta música
      repetirqualidadeautomática
      Outro vídeos desta música
        00:00 / 00:00
        automática
        OK