Cifra Club

Pra Que Entender?

Jorge e Mateus

Cifra: Principal
exibições 579.758
Tom: A (com acordes na forma de G) Capotraste na 2ª casa
Intro 2x: G  D  C9
        G               D              C9
E|------9----9----------7---7----------4---5--------|
B|--/10---10---10----/9---9---9----5h7-------/7~----|
G|--------------------------------------------------|
D|--------------------------------------------------|
A|--------------------------------------------------|
E|--------------------------------------------------|
        G               D          C9
E|------9----9----------7---7------10p9-------------|
B|--/10---10---10----/9---9---9---x-----10~~--------|
G|-------------------------------x-----------9/11~~-|
D|--------------------------------------------------|
A|--------------------------------------------------|
E|--------------------------------------------------|

Verso (Abafado):
Em
  O que tem por trás desse sorriso
C9
  Que me deixa fissurado em você
Em
  É um misto de desejo e vício
C9
  Já tentei, mas não consigo entender

Pré-Refrão:
G                      D9
  Toda vez que eu te encontro
          C9
Sinto os pés fora do chão
G                   D9
 Toda vez que eu te olho
        C9
Não consigo dizer não

Refrão 2x:
Am
 Por mais que eu queira
                            G
Não consigo mais pensar em nada
Am
 Quando eu notei, já era amor
             G
Eu não imaginava

                 Am ( G/B ) C9
Que eu fosse querer
       G  (Riff 1)
Era você
              Am ( G/B ) C9
Pra quê entender
                G  (Riff 1)
Eu tô amando você
Riff 1:
E|---------------------------------|
B|---------------------------------|
G|-/-9--9--9--9--7--7--7--6--6--6--|
D|-/11-11-11-11--9--9--9--7--7--7--|
A|---------------------------------|
E|---------------------------------|

Passagem 2x:
Em
 Na na na na na

 Na na na na na
C9
 Na na na na na

 Na na na na na

Pré-Refrão:
G                      D9
  Toda vez que eu te encontro
          C9              (Riff 2)
Sinto os pés fora do chão
G                   D9
 Toda vez que eu te olho
        C9
Não consigo dizer não
Riff 2:
E|--------------------|
B|--3p2---3/5~~--3--2-|
G|------4-------------|
D|--------------------|
A|--------------------|
E|--------------------|

Refrão 2x:
Am
 Por mais que eu queira
                            G
Não consigo mais pensar em nada
Am
 Quando eu notei, já era amor
             G
Eu não imaginava

                 Am ( G/B ) C9
Que eu fosse querer
       G  (Riff 1)
Era você
              Am ( G/B ) C9
Pra que entender
                G   (Riff 1)
Eu tô amando você.

Passagem - Final 2x:
Em
 Na na na na na

 Na na na na na
C9
 Na na na na na

 Na na na na na

( Em )
Sanfona - Durante Passagens:
E|-----------------------------------------------12-10-9-10-9~\|
B|-10-10-10-9-10~--10-10-10-9-10~--10-10-10-9-10~--------------|
G|-------------------------------------------------------------|
D|-------------------------------------------------------------|
A|-------------------------------------------------------------|
E|-------------------------------------------------------------|
Acordes para:
    Colaboração e revisão:
    • Vinícius Dias
    • caio pereira

    0 comentários

      mostrar mais comentários

      Conseguiu tocar?

      92tocaram1ainda não

      Grave um vídeo tocando Pra Que Entender? e mande pra gente!

      00:00 / 00:00
      outros vídeos desta música
      repetirqualidadeautomática
      Outro vídeos desta música
        00:00 / 00:00
        automática
        Capítulos
        • Início
        • Acordes da música
        • Tocando a música
        • Tocando Introdução e Primeira parte
        • Ensinando ritmo padrão
        • Encerramento
        OK