Cifra Club

Prisão Sem Grade

Jorge e Mateus

Cifra: Principal
exibições 303.774
Tom: D#
                Cm
E|-------------------------------------|-----------------------------------3-3--|
B|----------4-------4-------4----------|---------4--------4--------4-------4-4--|
G|------5-------5-------5-------5---5--|-----5--------5--------5--------5--5-5--|
D|----5---5---5---5---5---5---5---5----|---5---5----5---5----5---5----5----5-5--|
A|-------------------------------------|-----------------------------------3-3--|
E|-------------------------------------|-----------------------------------x-x--|

               

Intro: Cm  Bb  Fm  Gm  G# Bb

( Na versão original, todos os acordes são pestanas )

E|------------------------------|------------------|-----------------|
B|--6--4--3-4---4--3----3-4-4/6-|-6-6-4-4-3-3------|-----3---6-3-----|
G|--------------------5---------|-------------5-5--|--------------5--|
D|------------------------------|------------------|-----------------|
A|------------------------------|------------------|-----------------|
E|------------------------------|------------------|-----------------|

  Cm                                        Bb
Ultimamente já não tenho mais mandado em mim
                                         Fm
Foi só você que fez com que eu ficasse assim
                               Gm  G#
Não há nada que eu possa fazer
                  Bb
A não ser, me envolver

 Cm
Quando o amor invade
                Bb
É sempre natural

Bater dentro do peito
                      Fm
Um clique fora do normal
                      Gm G#       Bb
E agora só resta deixar acontecer

Refrão:
Cm             Bb
Você me seduziu, me hipnotizou
Fm           G#      Bb
Eu me apaixonei, a cabeça virou
Cm                   Bb                Fm
Eu sigo a minha vida, numa prisão sem grade
             G#     Bb          Cm
Eu sigo te amando, e todo mundo sabe
    Bb                Fm        Gm  G#  Bb
Todo mundo sabe, todo mundo sabe

Cm
Quando o amor invade
              Bb
É sempre natural

Bater dentro do peito
                      Fm
Um clique fora do normal
                      Gm G#      Bb
E agora só resta deixar acontecer

Refrão:
Cm            Bb
Você me seduziu, me hipnotizou
Fm           G#      Bb
Eu me apaixonei, a cabeça virou
Cm                   Bb               Fm
Eu sigo a minha vida, numa prisão sem grade
              G#     Bb         Cm
Eu sigo te amando, e todo mundo sabe
    Bb          Fm               Gm  G#  Bb
Todo mundo sabe, todo mundo sabe



 Cm            Bb            Fm    G#
Você me seduziu, me hipnotizooooooou                E|-6b8-6-3-6b8-6-3----------------------|
     Bb                                              B|-----------------6---4-6-4-6b8--6b8---|
A cabeça virou                                      G|------------------------------------5-|
Cm                   Bb               Fm
Eu sigo a minha vida, numa prisão sem grade
              G#     Bb         Cm
Eu sigo te amando, e todo mundo sabe
    Bb          Fm               Gm  G#  Bb
Todo mundo sabe, todo mundo sabe



(  Cm  Bb  Fm  Gm  G#  Bb ) 2x

Solo Guitarra:
E|---------------------------------------|--11p13-11--------------------------11-----|
B|--11/13--------------------------------|------------13-11----11/13-------13----13--|
G|-----------10/12-10---------8----8/10--|------------------12----------12-----------|
D|-----------------------8p10---10-------|-------------------------------------------|
A|---------------------------------------|-------------------------------------------|
E|---------------------------------------|-------------------------------------------|

E|-----------------------|
B|--11--11---------------|
G|--10--10-----10p12p10--|
D|-----------------------|
A|-----------------------|
E|-----------------------|


Solo final:
E|-----------------------------------------|
B|---------4-------4--------4--------------|
G|------5-------5-------5--------5---5-----|
D|----5---5---5---5---5---5----5---5-------|
A|-----------------------------------------|
E|-----------------------------------------|

0 comentários

    mostrar mais comentários

    Conseguiu tocar?

    37tocaram1ainda não

    Grave um vídeo tocando Prisão Sem Grade e mande pra gente!

    00:00 / 00:00
    outros vídeos desta música
    repetirqualidadeautomática
    Outro vídeos desta música
      00:00 / 00:00
      automática
      OK