Cifra Club

Aprenda

Prisão Sem Grade

Jorge & Mateus

Cifra: Principal (violão e guitarra)
tom: Cm
[Intro] Cm  Bb9  Fm  Eb/G  Ab  Bb
        Cm  Bb9  Fm  Eb/G  Ab  Bb

E|------------------------------------------|
B|-------4-------4-------4------------------|
G|---5-------5-------5-------5--------------|
D|-5---5---5---5---5---5---5---5------------|
A|------------------------------------------|
E|------------------------------------------|

E|------------------------------------------|
B|---------4-------4-------4----------------|
G|-5---5-------5-------5-------5------------|
D|---5---5---5---5---5---5---5---5----------|
A|------------------------------------------|
E|------------------------------------------|

   Cm
E|------------------------------------------|
B|-4-4--4/6-4-3-3h4--3/4-3---3-4-4/6--------|
G|-5-5---------------------5----------------|
D|-5-5--------------------------------------|
A|-3-3--------------------------------------|
E|------------------------------------------|

E|------------------------------------------|
B|-3/4-4-4-4-3-3------3h4-3~--4/6-4~--------|
G|---------------5-5------------------------|
D|------------------------------------------|
A|------------------------------------------|
E|------------------------------------------|

[Primeira Parte]

Cm                                        
   Ultimamente já não tenho mais mandado em mim
Bb9                                           
    Foi só você que fez 
                      Fm
Com que eu ficasse assim
                            Eb/G  
Não há nada que eu possa fazer
   Ab            Bb
A não ser, me envolver

[Pré-Refrão]

Cm
   Quando o amor invade
               
É sempre natural
Bb9
    Bater dentro do peito
                      Fm
Um clique fora do normal
                     Eb/G  Ab      Bb
E agora só resta deixar       acontecer

[Refrão]

Cm                 Bb9
   Você me seduziu,   me hipnotizou
Fm              Ab       Bb
   Eu me apaixonei, a cabeça virou
Cm                      Bb9                   Fm
   Eu sigo a minha vida,    numa prisão sem grade
             Ab       Bb         Cm
Eu sigo te amando, e todo mundo sabe
      Bb9               Fm       Eb/G  Ab  Bb
Todo mundo sabe, todo mundo sabe

Todo mundo sabe

[Pré-Refrão]

Cm
   Quando o amor invade
               
É sempre natural
Bb9
    Bater dentro do peito
                      Fm
Um clique fora do normal
                     Eb/G  Ab      Bb
E agora só resta deixar       acontecer

[Refrão]

Cm                 Bb9
   Você me seduziu,   me hipnotizou
Fm              Ab       Bb
   Eu me apaixonei, a cabeça virou
Cm                      Bb9              Fm
   Eu sigo a minha vida,    numa prisão sem grade
Ab    Bb         Cm
   E todo mundo sabe
      Bb9               Fm       Eb/G  Ab  Bb
Todo mundo sabe, todo mundo sabe

Cm                 Bb9           Fm  Ab
   Você me seduziu,   me hipnotizou
     Bb
A cabeça virou
Cm                      Bb9              Fm
   Eu sigo a minha vida,    numa prisão sem grade
Ab    Bb         Cm
   E todo mundo sabe
      Bb9        Fm                Eb/G  Ab  Bb
Todo mundo sabe,    todo mundo sabe

Todo mundo sabe

[Solo] Cm  Bb9  Fm  Eb/G  Ab  Bb

E|------------------------------------------|
B|-11/13~-----------------------------------|
G|--------10/12-10-------8---8h10-----------|
D|------------------8h10---8----------------|
A|------------------------------------------|
E|------------------------------------------|

E|-11h13-11-------------------------11------|
B|-----------13-11----11/13------13----13---|
G|-----------------12--------/12------------|
D|------------------------------------------|
A|------------------------------------------|
E|------------------------------------------|

E|------------------------------------------|
B|-11-11------------------------------------|
G|-10-10---8h10~----------------------------|
D|------------------------------------------|
A|------------------------------------------|
E|------------------------------------------|

[Final] Cm  Bb9  Fm  Eb/G  Ab  Bb  Cm
Composição de Maraisa / Nivardo Paz
333.784 exibições
    • ½ Tom
    • Am
    • Bbm
    • Bm
    • Cm
    • C#m
    • Dm
    • Ebm
    • Em
    • Fm
    • F#m
    • Gm
    • G#m
  • Adicionar à lista

    0 comentários

    Ver todos os comentários
    00:00 / 00:00
    Outros vídeos desta música
    Repetir Qualidade Automático
    Outros vídeos desta música
    00:00 / 00:00
    Automático

    Cifra Club Pro

    Aproveite o Cifra Club com benefícios exclusivos e sem anúncios
    Cifra Club Pro
    Aproveite o Cifra Club com benefícios exclusivos e sem anúncios
    OK