Cifra Club

Sem Você

Jorge e Mateus

Cifra: Principal
exibições 53.706
Tom: F
Intro:
    Dm       Bb      F       C        Dm      Bb      F       C
E|---------------------------------------------------------------|
B|-6-6-------------6-6-8-8-5-5-5-5--6-6-------------6-6-8-8-5--5-|
G|-----2-2-3-3-3-3----------------------2-2-3-3-3-3--------------|
D|---------------------------------------------------------------|
A|---------------------------------------------------------------|
E|---------------------------------------------------------------|

     F      C     Dm    Bb
E|-1---|-3--0-|-5---|-3--1-|
B|-----|------|---6-|------|
G|---2-|------|-----|------|
D|-----|------|-----|------|
A|-----|------|-----|------|
E|-----|------|-----|------|

F                                         C
 Pela janela do meu quarto eu vi o seu olhar,
                    Dm
 E sai pra te encontrar,
                     Bb
 Mas você não estava lá.

F                                        C
 Eu vi a lua e pensei que o brilho era você,
                              Dm
 Se eu enlouquecer a culpa e sua,
                              Bb  C
 Se eu enlouquecer a culpa suaaaa.
Refrão:
    Dm       Bb      F       C        Dm      Bb      F       C
E|---------------------------------------------------------------|
B|-6-6-------------6-6-8-8-5-5-5-5--6-6-------------6-6-8-8-5--5-|
G|-----2-2-3-3-3-3----------------------2-2-3-3-3-3--------------|
D|---------------------------------------------------------------|
A|---------------------------------------------------------------|
E|---------------------------------------------------------------|

       Dm           Bb       F     C
 Sem você, magia alguma pode me ajudar,
       Dm              Bb         F           C
 Sem você, confundo a lua com a luz do seu olhar,
       Dm           Bb       F      C
 Sem você, magia alguma pode me ajudar,
        Gm         Dm        Bb       C      D5( 5º casa)
 Vou ficar aqui na rua ate você voltar, pra mim.
Intro:
    Dm       Bb      F       C        Dm      Bb      F       C
E|---------------------------------------------------------------|
B|-6-6-------------6-6-8-8-5-5-5-5--6-6-------------6-6-8-8-5--5-|
G|-----2-2-3-3-3-3----------------------2-2-3-3-3-3--------------|
D|---------------------------------------------------------------|
A|---------------------------------------------------------------|
E|---------------------------------------------------------------|

F                                        C
 Eu vi a lua e pensei que o brilho era você,
                              Dm
 Se eu enlouquecer a culpa e sua,
                              Bb  C
 Se eu enlouquecer a culpa suaaaa.

Refrão:
       Dm           Bb       F     C
 Sem você, magia alguma pode me ajudar,
       Dm              Bb         F           C
 Sem você, confundo a lua com a luz do seu olhar,
       Dm           Bb       F      C
 Sem você, magia alguma pode me ajudar,
        Gm         Dm        Bb       C       Dm  C  A
 Vou ficar aqui na rua ate você voltar, pra mim.

       Dm           Bb       F     C
 Sem você, magia alguma pode me ajudar,
       Dm              Bb         F           C
 Sem você, confundo a lua com a luz do seu olhar,
       Dm           Bb       F      C
 Sem você, magia alguma pode me ajudar,
        Gm         Dm        Bb       C         D5
 Vou ficar aqui na rua ate você voltar, pra mim.
Acordes para:
    Colaboração e revisão:
    • Allan caixeta
    • Bruno Vinicius

    0 comentários

      mostrar mais comentários

      Conseguiu tocar?

      4tocaram0ainda não

      Grave um vídeo tocando Sem Você e mande pra gente!

      00:00 / 00:00
      outros vídeos desta música
      repetirqualidadeautomática
      Outro vídeos desta música
        00:00 / 00:00
        automática
        OK