Enviar cifraEntrar

Some Ou Soma

Jorge e Mateus

Cifra: Principal
exibições 139.119
Tom: A#
Riff:1

E|---------------------------------------|
B|---------------------------------------|
G|--5/7-5-------------7-5----------------|
D|--------8--5-3-5--8----8--5-3-5-8------|
A|---------------------------------------|
E|---------------------------------------|

Riff:2

E|------------------\x-x/----------------|
B|------------------\x-x/----------------|
G|--5--7~7~-9b10-5--\x-x/----------------|
D|------------------\x-x/----------------|
A|------------------\x-x/----------------|
E|------------------\x-x/----------------|

Riff:1

E|---------------------------------------|
B|---------------------------------------|
G|--5/7-5-------------7-5----------------|
D|--------8--5-3-5--8----8--5-3-5-8------|
A|---------------------------------------|
E|---------------------------------------|

Riff:3

E|---------------------------------------|
B|---------------------------------------|
G|--5--7~7~-9b10-5-5~--------------------|
D|---------------------------------------|
A|---------------------------------------|
E|---------------------------------------|


Cm                        D#
Me diz o que você quer de mim
                       A#
Fala que ta sentindo saudade
                       F
Que me ama, mas não é verdade

Cm
Quando eu olho você já sumiu
          D#
Meu mundo desaba e a ficha caiu
A#                                         F
Tô sozinho, chorando, sofrendo com sua ausência
Cm                               D#
E de repente você aparece, e o coração não obedece
                A#                                            F
Se é pra sofrer, não quero te ver, sai da minha vida e vê se me esquece

Refrão:
            Cm             D#
Ou some ou soma, deixe de drama
               A#                                   F
Eu já tô cansado de arriscar e quando eu começo a gostar
         Cm                D#
Aí você some, nem lembra meu nome
               A#                                    F                   Cm D# A# F (2x)
E depois volta querendo somar, desculpe desse jeito assim não dá pra amar
  • 1
  • 2
  • 3
  • 4
  • 5
  • 6
  • 7
  • 8
  • 9
  • 10
  • 11
  • 12
    Acordes para:

      0 comentários

        mostrar mais comentários

        Conseguiu tocar?

        23tocaram2ainda não

        Grave um vídeo tocando Some Ou Soma e mande pra gente!

        00:00 / 00:00
        outros vídeos desta música
        repetirqualidadeautomática
        • automática
        Outro vídeos desta música
          00:00 / 00:00
          automática
          • automática
          Acordes para:violão e guitarra
          dificuldadeexibiçõescontribuições
          fecharplay/pause subir/descer velocidade
            acordes
            fechar
            OK
            Feedback