Cifra Club

Some Ou Soma

Jorge e Mateus

Cifra: Principal
exibições 181.013
Tom: A
Riff:1

E|---------------------------------------|
B|---------------------------------------|
G|--4/6-4-------------6-4----------------|
D|--------7--4-2-4--7----7--4-2-4-7------|
A|---------------------------------------|
E|---------------------------------------|

Riff:2

E|-----------------\x-x/----------------|
B|-----------------\x-x/----------------|
G|--4--6~6~-8b9-4--\x-x/----------------|
D|-----------------\x-x/----------------|
A|-----------------\x-x/----------------|
E|-----------------\x-x/----------------|

Riff:1

E|---------------------------------------|
B|---------------------------------------|
G|--4/6-4-------------6-4----------------|
D|--------7--4-2-4--7----7--4-2-4-7------|
A|---------------------------------------|
E|---------------------------------------|

Riff:3

E|--------------------------------------|
B|--------------------------------------|
G|--4--6~6~-8b9-4-4~--------------------|
D|--------------------------------------|
A|--------------------------------------|
E|--------------------------------------|


Bm                        D
Me diz o que você quer de mim
                       A
Fala que ta sentindo saudade
                       E
Que me ama, mas não é verdade

Bm
Quando eu olho você já sumiu
          D
Meu mundo desaba e a ficha caiu
A                                         E
Tô sozinho, chorando, sofrendo com sua ausência
Bm                               D
E de repente você aparece, e o coração não obedece
                A                                            E
Se é pra sofrer, não quero te ver, sai da minha vida e vê se me esquece

Refrão:
            Bm             D
Ou some ou soma, deixe de drama
               A                                   E
Eu já tô cansado de arriscar e quando eu começo a gostar
         Bm                D
Aí você some, nem lembra meu nome
               A                                    E                   Bm D A E (2x)
E depois volta querendo somar, desculpe desse jeito assim não dá pra amar

0 comentários

    mostrar mais comentários

    Conseguiu tocar?

    24tocaram2ainda não

    Grave um vídeo tocando Some Ou Soma e mande pra gente!

    00:00 / 00:00
    outros vídeos desta música
    repetirqualidadeautomática
    Outro vídeos desta música
      00:00 / 00:00
      automática
      OK