Cifra Club

Trincadinho

Jorge e Mateus

Cifra: Principal (violão e guitarra)
Tom: B (forma dos acordes no tom de D) Capotraste na 9ª casa
[Intro]  D  A  Bm  G

Parte 1 de 2

E|--0h2p0---0h2p0---/5--------------|
B|-3------3-------3----2-3-5~-------|
G|----------------------------------|
D|----------------------------------|
A|----------------------------------|
E|----------------------------------|

Parte 2 de 2

E|--0h2p0---0h2p0---/5---3--2--0----|
B|-3------3-------3------5--3--2--3-|
G|--------------------------------4-|
D|----------------------------------|
A|----------------------------------|
E|----------------------------------|

        D
Vale a pena eu gostar de você
Vale a pena eu parar de beber
Pra te ver
        A
Vale a pena eu dormir mais tarde
Vale a pena toda essa saudade
 E
Será que compensa
                              G
Eu largar minha rotina de cachaça?
                  D
Pra te ter lá em casa
                A         D
E fazer vários nada, nada

D
  Já tá meio caminho andado
                 A
Se parar, é prejuízo
Entre uma noite e outra
                   Bm
Eu vou correndo o risco
              Bm  A
De quebrar a cara
             G
Pra quem já teve um coração quebrado
Um trincadinho é nada
D
  Já tá meio caminho andado
                 A
Se parar, é prejuízo
Entre uma noite e outra
                   Bm
Eu vou correndo o risco
              Bm  A
De quebrar a cara
             G
Pra quem já teve um coração quebrado
Um trincadinho é nada

( D  A  Bm  G )

Parte 1 de 2

E|--0h2p0---0h2p0---/5---------------|
B|-3------3-------3----2-3-4~--------|
G|-----------------------------------|
D|-----------------------------------|
A|-----------------------------------|
E|-----------------------------------|

Parte 2 de 2

E|--0h2p0---0h2p0---/5---------------|
B|-3------3-------3------/3-/2-------|
G|-----------------------------/4-2--|
D|-----------------------------------|
A|-----------------------------------|
E|-----------------------------------|

        D
Vale a pena eu gostar de você
Vale a pena eu parar de beber
Pra te ver
        A
Vale a pena eu dormir mais tarde
Vale a pena toda essa saudade
 E
Será que compensa
                              G
Eu largar minha rotina de cachaça?
                  D
Pra te ter lá em casa
                A         D
E fazer vários nada, nada

D
  Já tá meio caminho andado
                 A
Se parar, é prejuízo
Entre uma noite e outra
                   Bm
Eu vou correndo o risco
              Bm  A
De quebrar a cara
             G
Pra quem já teve um coração quebrado
Um trincadinho é nada
D
  Já tá meio caminho andado
                 A
Se parar, é prejuízo
Entre uma noite e outra
                   Bm
Eu vou correndo o risco
              Bm  A
De quebrar a cara
             G
Pra quem já teve um coração quebrado
Um trincadinho é nada

( D  A )

                   Bm
Eu vou correndo o risco
              Bm  A
De quebrar a cara
             G
Pra quem já teve um coração quebrado
Um trincadinho é nada

[Final]  D

Parte 1 de 1

E|--0h2p0---0h2p0---/5----0h2p0---0h2p0---/5--2-|
B|-3------3-------3------3------3-------3-----3-|
G|--------------------------------------------2-|
D|--------------------------------------------0-|
A|----------------------------------------------|
E|----------------------------------------------|
exibições 193.757
Acordes para:

    0 comentários

    mostrar mais comentários

    Conseguiu tocar?

    14 tocaram 11 ainda não

    Grave um vídeo tocando Trincadinho e mande pra gente!

    00:00 / 00:00
    outros vídeos desta música
    repetir qualidade Automático
    Outros vídeos desta música
    00:00 / 00:00
    Automático
    OK