Cifra Club

Aprenda

Arco-íris

Jorge Vercillo

Cifra: Principal (violão e guitarra)
Tom: C
[Intro]  B7  Em7/9  G/A  F#m7  A/B  B7  Em7+/9  G/A  F#m7  B7

e|--------------------------------|
B|--------------------------------|
G|---------------9--11-11-9-------|
D|--9-9-9--12-12------------9-12--|
A|--------------------------------|
E|--------------------------------|

e|--------------------------------|
B|--------------------------------|
G|---------------9--11-11-9-9-8---|
D|--9-9-9--12-12------------------|
A|--------------------------------|
E|--------------------------------|

e|--------------------------------|
B|--------------------------------|
G|---------------9--11-11-9-------|
D|--9-9-9--12-12------------9-12--|
A|--------------------------------|
E|--------------------------------|

e|-------------------------|
B|-------------------------|
G|-------------9-9\8-------|
D|--9-9-9--12--------9~~---|
A|-------------------------|
E|-------------------------|


G7+     A/G  F7+   G/F
  Azul-rei, verde-mar
    Em7/9         G/A          Bm7    C/D
Eu pedi  ao  arco-íris para me emprestar
G7+     A/G   F7+    G/F
 E lhe dei   sem pensar
 Em7/9               G/A              A/B  A9(b5)
Pois preciso do infinito que você me dá

 Em7/9                        G/A
Mas que coisa linda, quem me dera!
         F#m7                B7
Era só quimera para um sonhador
          Em7/9                   G/A
Lembro o tempo que ficou ali na areia
            F#m7                  B7/4  B7
Na noite de estrelas, na roda de viola
   Em7/9             G/A
E você, que era só quimera
              F#m7              B7
Hoje é minha vida, hoje é meu amor
     Em7/9              G/A
E o medo nunca mais me cega
                F#m7     B7
O meu mundo explodiu em cor

     Em7/9   Em7   Em7/9
Arco-íris no olhar
       G/A              G9/5b  G/A
Azul-rei por sobre um ve|----rde-mar
        F#m7  F#m7/11  F#m7     B7/4   B7
Suas cores,             quem colore?
         Em7/9      Em7  Em7/9
Não tem mais o que fazer
 G/A              G9/5b  G/A
Não me reconheço sem    você
          F#m7  F#m7/11  F#m7        B7/4  B7
Não me engano:               eu te amo

( B7  Em7/9  G/A  F#m7  A/B  B7  Em7/9  G/A  F#m7  B7  Em7/9 )
Composição de Filó Machado / Jorge Vercillo
Colaboração e revisão:
49.976 exibições
    • ½ Tom
    • A
    • Bb
    • B
    • C
    • Db
    • D
    • Eb
    • E
    • F
    • F#
    • G
    • Ab
  • Adicionar à lista

    0 comentários

    Mostrar mais comentários

    Conseguiu tocar?

    5 Tocaram 0 Ainda não

    Grave um vídeo tocando Arco-íris e mande pra gente!

    00:00 / 00:00
    outros vídeos desta música
    repetir qualidade Automático
    Outros vídeos desta música
    00:00 / 00:00
    Automático
    OK