Cifra Club

Ciclo

Jorge Vercillo

Cifra: Principal
exibições 122.882
Tom: G
[Intro]  G7M(9)  Em7(9)  C7M  C/D  D7

E|---------------------------------------------------------------|
B|------10-10-10-10-8-7-----10-10-10-10-8-7--8-8/10--------------|
G|----7--------------------7-------------------------7/9---9\7---| 
D|---------------------------------------------------------------|
A|---------------------------------------------------------------|
E|---------------------------------------------------------------|

E|---------------------------------------------------5/7---------|
B|------10-10-10-10-8-7-----10-10-10-10-8-7--8-8/10-------10-8---|
G|----7--------------------7-----------------------------------9-| 
D|---------------------------------------------------------------|
A|---------------------------------------------------------------|
E|---------------------------------------------------------------|

E|-------------7-8-7---------------------------------------------|
B|------7-8-10-------10------------------------------------------|
G|----9----------------------------------------------------------| 
D|---------------------------------------------------------------|
A|---------------------------------------------------------------|
E|---------------------------------------------------------------|

G7M(9)               Em7(9)
Eu não sei o que me domina
Am7(9)             C/D            D7
E mesmo assim não penso em me livrar
 G7M(9)               Em7(9)
Num fascínio de alma gêmea
 Am7(9)      Am7(b5)        D7
Você em mim constrói o seu lugar

  G7M(9)          Em7(9)
O amor se fez me levando além
      C7M     C/D  D7
Onde ninguém mais
  G7M(9)       Em7(9)               C7M     Eb7M
Criou raiz, ancorou de vez, fez de mim seu cais
                     C/D  D7
Lendo a rota das estrelas

Nesse abraço se fez um ciclo
Que não tem fim e é todo o meu viver
É como alcançar o infinito
Reflete em mim e volta pra você

  G7M(9)       Em7(9)
O amor surgiu como um em mil
     C7M     C/D  D7
Por você eu vim
  G7M(9)        Em7(9)           C7M       Eb7M
E assim será a me conduzir, sem mandar em mim
                          D7        D7(b9)   G7M(9)
Como o vento e o barco a vela, que nos leva sem fim
Acordes para:
    Colaboração e revisão:

    0 comentários

      mostrar mais comentários

      Conseguiu tocar?

      10tocaram1ainda não

      Grave um vídeo tocando Ciclo e mande pra gente!

      00:00 / 00:00
      outros vídeos desta música
      repetirqualidadeautomática
      Outro vídeos desta música
        00:00 / 00:00
        automática
        OK