Cifra Club

Aprenda

Teardrop

José González

Cifra: Principal (violão e guitarra)
Tom: F
                       8x                    
 |---------------0------------||---------------0-----------|
D|---0------------------------||---0-----------------------|
A|*--------0-----------0-----*||*--------0-----------0-----|
D|*-----0-----0-----0-----0--*||*-----0-----0-----0-----0--|
A|----------------------------||---------------------------|
D|----------------------------||---------------------------|

  is   a   vrb...
                                      
--------------0-----------|--------------0-----------|
--0-----------------------|--0-----------------------|
--------0-----------0-----|--------0-----------0-----|
-----0-----0-----0-----0--|-----0-----0-----0-----0--|
--------------------------|--------------------------|
--------------------------|--------------------------|

                             Farlss             on
                                      
--------------0-----------|--------------0-----------|
--0-----------------------|--0-----------------------|
--------0-----------0-----|--------0-----------0-----|
-----0-----0-----0-----0--|-----5-----5-----5-----5--|
--------------------------|--------------------------|
--------------------------|--------------------------|

        my                   brath
                                      
--------------0-----------|--------------0-----------|
--0-----------------------|--0-----------------------|
--------0-----------0-----|--------0-----------0-----|
-----5-----5-----5-----5--|-----0-----0-----0-----0--|
--------------------------|--------------------------|
--------------------------|--------------------------|


                                        
--------------0------------||--------------0-----------|
--0------------------------||--0-----------------------|
--------0-----------0-----*||--------0-----------0-----|
-----0-----0-----0-----0--*||-----3-----3-----3-----3--|
---------------------------||--------------------------|
---------------------------||--------------------------|


                                      
--------------0-----------|--------------0-----------|
--0-----------------------|--0-----------------------|
--------0-----------0-----|--------0-----------0-----|
-----3-----3-----3-----3--|-----5-----5-----5-----5--|
--------------------------|--------------------------|
--------------------------|--------------------------|


                                      
--------------0-----------|--------------0-----------|
--0-----------------------|--0-----------------------|
--------0-----------0-----|--------0-----------0-----|
-----5-----5-----5-----5--|-----0-----0-----0-----0--|
--------------------------|--------------------------|
--------------------------|--------------------------|


                                      
--------------0-----------|--------------------------|
--0-----------------------|--0-----------0-----------|
--------0-----------0-----|--------0-----------0-----|
-----0-----0-----0-----0--|-----0-----0-----0-----0--|
--------------------------|--------------------------|
--------------------------|--------------------------|


                                        8x
--------------------------||----------------------------||
--0-----------0-----------||---0-----------0------------||
--------0-----------0-----||*--------0-----------0-----*||
-----0-----0-----0-----0--||*-----0-----------0-----0--*||
--------------------------||---0--------0---------------||
--------------------------||---0--------0---------------||


                                      
--------------------------|--------------------------|
--0-----------0-----------|--0-----------0-----------|
--------0-----------0-----|--------0-----------0-----|
-----0-----------0-----0--|-----0-----------0-----0--|
--0--------0--------------|--0--------0--------------|
--0--------0--------------|--0--------0--------------|


                                      
--------------------------|--------------------------|
--0-----------0-----------|--0-----------0-----------|
--------0-----------0-----|--------0-----------0-----|
-----0-----------0-----0--|-----0-----------0-----0--|
--0--------0--------------|--0--------0--------------|
--0--------0--------------|--0--------0--------------|


                                      
--------------------------|--------------------------|
--0-----------0-----------|--0-----------0-----------|
--------0-----------0-----|--------0-----------0-----|
-----0-----------0-----0--|-----0-----------0-----0--|
--------------------------|--------------------------|
--5--------5--------------|--5--------5--------------|


                                      
--------------------------|--------------------------|
--0-----------0-----------|--0-----------0-----------|
--------0-----------0-----|--------0-----------0-----|
-----0-----------0-----0--|-----0-----------0-----0--|
--0--------0--------------|--0--------0--------------|
--0--------0--------------|--0--------0--------------|


                                      
--------------------------|--------------------------|
--0-----------0-----------|--0-----------0-----------|
--------0-----------0-----|--------0-----------0-----|
-----0-----------0-----0--|-----0-----------0-----0--|
--0--------0--------------|--0--------0--------------|
--0--------0--------------|--0--------0--------------|


                                      
--------------------------|--------------------------|
--0-----------0-----------|--0-----------0-----------|
--------0-----------0-----|--------0-----------0-----|
-----0-----------0-----0--|-----0-----------0-----0--|
--0--------0--------------|--0--------0--------------|
--0--------0--------------|--0--------0--------------|


                                      
--------------------------|--------------------------|
--0-----------0-----------|--0-----------0-----------|
--------0-----------0-----|--------0-----------0-----|
-----0-----------0-----0--|-----0-----------0-----0--|
--------------------------|--------------------------|
--5--------5--------------|--5--------5--------------|


                                      
--------------------------|--------------------------|
--0-----------0-----------|--0-----------0-----------|
--------0-----------0-----|--------0-----------0-----|
-----0-----------0-----0--|-----0-----------0-----0--|
--0--------0--------------|--0--------0--------------|
--0--------0--------------|--0--------0--------------|


                                      
--------------------------|--------------------------|
--0-----------0-----------|--0-----------0-----------|
--------0-----------0-----|--------0-----------0-----|
-----0-----------0-----0--|-----0-----------0-----0--|
--------------------------|--------------------------|
--3--------3--------------|--3--------3--------------|


                                      
--------------------------|--------------------------|
--0-----------0-----------|--0-----------0-----------|
--------0-----------0-----|--------0-----------0-----|
-----0-----------0-----0--|-----0-----------0-----0--|
--------------------------|--------------------------|
--5--------5--------------|--5--------5--------------|


                                      
--------------------------|--------------3-----------|
--0-----------0-----------|--0-----0-----------0-----|
--------0-----------0-----|--------------------------|
-----0-----------0-----0--|-----0-----------0-----0--|
--0--------0--------------|--0--------0--------------|
--0--------0--------------|--------------------------|


                                      
--5-----------5-----------|--5-----------5-----------|
--------0-----------0-----|--------0-----------0-----|
--------------------------|--------------------------|
-----0-----------0-----0--|-----0-----------0-----0--|
--0--------0--------------|--0--------0--------------|
--------------------------|--------------------------|


                                      
--8-----------8-----------|--8-----------8-----------|
--------5-----------5-----|--------5-----------5-----|
--------------------------|--------------------------|
-----0-----------0-----0--|-----0-----------0-----0--|
--0--------0--------------|--0--------0--------------|
--------------------------|--------------------------|


                                      
--8-----------8-----------|--8-----------8-----------|
--------5-----------5-----|--------5-----------5-----|
--------------------------|--------------------------|
-----0-----------0-----0--|-----0-----------0-----0--|
--0--------0--------------|--0--------0--------------|
--------------------------|--------------------------|


                                      
--8-----------8-----------|--8-----------8-----------|
--------5-----------5-----|--------5-----------5-----|
--------------------------|--------------------------|
-----0-----------0-----0--|-----0-----------0-----0--|
--0--------0--------------|--0--------0--------------|
--------------------------|--------------------------|


                                      
--------------------------|--------------------------|
--0-----------0-----------|--0-----------0-----------|
--------0-----------0-----|--------0-----------0-----|
-----0-----------0-----0--|-----0-----------0-----0--|
--0--------0--------------|--0--------0--------------|
--0--------0--------------|--0--------0--------------|


                                      
--------------------------|--------------------------|
--0-----------0-----------|--0-----------0-----------|
--------0-----------0-----|--------0-----------0-----|
-----0-----------0-----0--|-----0-----------0-----0--|
--0--------0--------------|--0--------0--------------|
--0--------0--------------|--0--------0--------------|


                                      
--------------------------|--------------------------|
--0-----------0-----------|--0-----------0-----------|
--------0-----------0-----|--------0-----------0-----|
-----0-----------0-----0--|-----0-----------0-----0--|
--------------------------|--------------------------|
--5--------5--------------|--5--------5--------------|


                                      
--------------------------|--------------------------|
--0-----------0-----------|--0-----------0-----------|
--------0-----------0-----|--------0-----------0-----|
-----0-----------0-----0--|-----0-----------0-----0--|
--0--------0--------------|--0--------0--------------|
--0--------0--------------|--0--------0--------------|


                                      
--------------------------|--------------------------|
--0-----------0-----------|--0-----------0-----------|
--------0-----------0-----|--------0-----------0-----|
-----0-----------0-----0--|-----0-----------0-----0--|
--0--------0--------------|--0--------0--------------|
--0--------0--------------|--0--------0--------------|


                                      
--------------------------|--------------------------|
--0-----------0-----------|--0-----------0-----------|
--------0-----------0-----|--------0-----------0-----|
-----0-----------0-----0--|-----0-----------0-----0--|
--0--------0--------------|--0--------0--------------|
--0--------0--------------|--0--------0--------------|


                                      
--------------------------|--------------------------|
--0-----------0-----------|--0-----------0-----------|
--------0-----------0-----|--------0-----------0-----|
-----0-----------0-----0--|-----0-----------0-----0--|
--------------------------|--------------------------|
--5--------5--------------|--5--------5--------------|


                                      
--------------------------|--------------------------|
--0-----------0-----------|--0-----------0-----------|
--------0-----------0-----|--------0-----------0-----|
-----0-----------0-----0--|-----0-----------0-----0--|
--0--------0--------------|--0--------0--------------|
--0--------0--------------|--0--------0--------------|


                                      
--------------------------|--------------------------|
--0-----------0-----------|--0-----------0-----------|
--------0-----------0-----|--------0-----------0-----|
-----0-----------0-----0--|-----0-----------0-----0--|
--------------------------|--------------------------|
--3--------3--------------|--3--------3--------------|


                                      
--------------------------|--------------------------|
--0-----------0-----------|--0-----------0-----------|
--------0-----------0-----|--------0-----------0-----|
-----0-----------0-----0--|-----0-----------0-----0--|
--------------------------|--------------------------|
--5--------5--------------|--5--------5--------------|


                                      
--------------------------|--------------------------|
--0-----------0-----------|--0-----------0-----------|
--------0-----------0-----|--------0-----------0-----|
-----0-----------0-----0--|-----0-----------0-----0--|
--0--------0--------------|--0--------0--------------|
--0--------0--------------|--0--------0--------------|


                                      
--------------------------|--------------------------|
--0-----------0-----------|--0-----------0-----------|
--------0-----------0-----|--------0-----------0-----|
-----0-----------0-----0--|-----0-----------0-----0--|
--------------------------|--------------------------|
--3--------3--------------|--3--------3--------------|


                                      
--------------------------|--------------------------|
--0-----------0-----------|--0-----------0-----------|
--------0-----------0-----|--------0-----------0-----|
-----0-----------0-----0--|-----0-----------0-----0--|
--------------------------|--------------------------|
--5--------5--------------|--5--------5--------------|


                                      
--------------------------|--------------------------|
--0-----------0-----------|--0-----------0-----------|
--------0-----------0-----|--------0-----------0-----|
-----0-----------0-----0--|-----0-----------0-----0--|
--------------------------|--------------------------|
--3--------3--------------|--3--------3--------------|


                                      
--------------3-----------|--5-----------5-----------|
--0-----0-----------0-----|--------0-----------0-----|
--------------------------|--------------------------|
-----0-----------0-----0--|-----0-----------0-----0--|
--0--------0--------------|--0--------0--------------|
--0--------0--------------|--0--------0--------------|


                                      
--5-----------5-----------|--8-----------8-----------|
--------0-----------0-----|--------5-----------5-----|
--------------------------|--------------------------|
-----0-----------0-----0--|-----0-----------0-----0--|
--0--------0--------------|--0--------0--------------|
--0--------0--------------|--0--------0--------------|


                                      
--8-----------8-----------|--8-----------8-----------|
--------5-----------5-----|--------5-----------5-----|
--------------------------|--------------------------|
-----0-----------0-----0--|-----0-----------0-----0--|
--0--------0--------------|--0--------0--------------|
--0--------0--------------|--0--------0--------------|


                                        
--8-----------8-----------|--10-----------10-----------|
--------5-----------5-----|---------7------------7-----|
--------------------------|----------------------------|
-----0-----------0-----0--|------0------------0-----0--|
--0--------0--------------|---0--------0---------------|
--0--------0--------------|---0--------0---------------|


                                          
--10-----------10-----------|--10-----------10-----------|
---------7------------7-----|---------7------------7-----|
----------------------------|----------------------------|
------0------------0-----0--|------0------------0-----0--|
---0--------0---------------|---0--------0---------------|
---0--------0---------------|---0--------0---------------|


                                        
--10-----------10-----------|--8-----------8-----------|
---------7------------7-----|--------5-----------5-----|
----------------------------|--------------------------|
------0------------0-----0--|-----0-----------0-----0--|
---0--------0---------------|--0--------0--------------|
---0--------0---------------|--7--------7--------------|


                                        
--8-----------8-----------|---8------------8-----------|
--------5-----------5-----|---------5------------5-----|
--------------------------|----------------------------|
-----0-----------0-----0--|------0------------0-----0--|
--0--------0--------------|---0---------0--------------|
--7--------7--------------|--10--------10--------------|


                                        
---8------------8-----------|--8-----------8-----------|
---------5------------5-----|--------5-----------5-----|
----------------------------|--------------------------|
------0------------0-----0--|-----0-----------0-----0--|
---0---------0--------------|--0--------0--------------|
--10--------10--------------|--7--------7--------------|


                                         
--8-----------8-----------|--10------------10-----------|
--------5-----------5-----|---------7-------------7-----|
--------------------------|-----------------------------|
-----0-----------0-----0--|------0-------------0-----0--|
--0--------0--------------|---0---------0---------------|
--7--------7--------------|--10--------10---------------|


                                >      
                              
--10------------10-----------|--0----||
---------7-------------7-----|--0----||
-----------------------------|--0----||
------0-------------0-----0--|--0----||
---0---------0---------------|--0----||
--10--------10---------------|--0----||
Composição de Liz Fraser
Colaboração e revisão:
  • Iguatemi Garin
2.334 exibições
    • ½ Tom
    • A
    • Bb
    • B
    • C
    • Db
    • D
    • Eb
    • E
    • F
    • F#
    • G
    • Ab
  • Adicionar à lista

    0 comentários

    Mostrar mais comentários

    Conseguiu tocar?

    0 Tocaram 0 Ainda não

    Grave um vídeo tocando Teardrop e mande pra gente!

    00:00 / 00:00
    outros vídeos desta música
    repetir qualidade Automático
    Outros vídeos desta música
    00:00 / 00:00
    Automático

    Cifra Club Pro

    Aproveite o Cifra Club com benefícios exclusivos e sem anúncios
    7 dias grátis
    Cifra Club Pro
    Aproveite o Cifra Club com benefícios exclusivos e sem anúncios
    7 dias grátis
    OK