Cifra Club

Aprenda

Molly Town

Joss Stone

Cifra: Principal (violão e guitarra)
tom: Eb
Intro Cm Bb Cm (2X)

E|-------------------------------------|
B|--8---8-6---------8/9-8---8-6--------|
G|----5-----8-7-5 5-------5-----8-7-5--|
D|-------------------------------------|
A|-------------------------------------|
E|-------------------------------------|

Cm
I met this boy in Molly town
            Bb                  Cm
He said a boom, a boom, boom, boom

He said he'd like to buy my round
       Bb                  Cm
I said ok, but you can't buy me baby

You look just like my favourite sound
       Bb   Cm
So I stay alalala
                                      Bb
Asking if I was allowed to come and play
Cm
The rest is history


Solo ritmado por trás do refrão
E|---------------------------|-----------------------------|
B|---------------------------|-----------------------------|
G|---------------------------|-----------------------------|
D|----5-5-5-5-5-5-6-5--------|----------------5------------|
A|--------------------8-6-8--|----8-8-8-8-8-8---8-6---6----|
E|---------------------------|----------------------8------|

E|-------------------------|-------------------------------|
B|-------------------------|-------------------------------|
G|-------------------------|-------------------------------|
D|--5-5-5-5-5-5-6-5--------|--------------5----------------|
A|------------------8-6-8--|--8-8-8-8-8-8---8-6---6-5/6-5--|
E|-------------------------|--------------------8----------|

Refrão
                            Bb
What is a girl like me to do-u-u
                             Fm
Not for a second I can leave you-u-u
Cm                                     Bb
Been here a month and I know your smile-u-u
                              Fm          Gm
My heart is thinking I'll stay a while-u-u-u-u


Cm
The weeks went on and the months fell out
       Bb                       Cm
Of my way, what can I sing about it

You swore you'd always be around
      Bb              Cm
If I stay, so I'm staying

I hold my plans to the god of fate
Bb                  Cm
And all he say was boom, boom, boom

You're the point to the love I found
      Bb                   Cm
In a way, don't think I'm crazy
                            Bb
What is a girl like me to do-u-u
                             Fm
Not for a second I can leave you-u-u
Cm                                     Bb
Been here a month and I know your smile-u-u
                              Fm          Gm
My heart is thinking I'll stay a while-u-u-u-u

Cm Bb Cm (4X)

Cm
Got my camera, got my sax
Bb               Cm
Let me go I'm leaving it

Run from life as I know it
Bb                                  Cm
'Cause you got me, got me, got me transfixed

Thought I'd travel far away
   Bb               Cm
But you call me half the way

Down in Bordeaux I would stay
            Bb                    Cm
'Cause you got me, got me, got me good babe

Solo ritmado por trás do refrão
E|---------------------------|-----------------------------|
B|---------------------------|-----------------------------|
G|---------------------------|-----------------------------|
D|----5-5-5-5-5-5-6-5--------|----------------5------------|
A|--------------------8-6-8--|----8-8-8-8-8-8---8-6---6----|
E|---------------------------|----------------------8------|

E|-------------------------|-------------------------------|
B|-------------------------|-------------------------------|
G|-------------------------|-------------------------------|
D|--5-5-5-5-5-5-6-5--------|--------------5----------------|
A|------------------8-6-8--|--8-8-8-8-8-8---8-6---6-5/6-5--|
E|-------------------------|--------------------8----------|

Refrão

                            Bb
What is a girl like me to do-u-u
                             Fm
Not for a second I can leave you-u-u
Cm                                     Bb
Been here a month and I know your smile-u-u
                              Fm          Gm
My heart is thinking I'll stay a while-u-u-u-u

Cm Bb Cm (2X)

Cm
I'll never let you go
Bb                  Cm
Boy, you're my comfort child
Cm
I'll never let you go
Bb  Cm
No, no, no, no

Cm
I see our love's been on lock and there's no talk if I stop it
Bb                            Cm
You just don't want to see me go
Cm
Every look I've been clocking, on your door I've been knocking
Bb                               Cm
Get your life and baby let's go, go

Cm
I met this boy in Molly town
            Bb                  Cm
He said a boom, a boom, boom, boom
Cm
He said he'd like to buy my round
       Bb                  Cm
I said ok, a boom, boom, boom

Cm Bb Cm (2X)
Composição de Jonathan Shorten, Joss Stone
Colaboração e revisão:
  • Gilson Feitosa
416 exibições
    • ½ Tom
    • A
    • Bb
    • B
    • C
    • Db
    • D
    • Eb
    • E
    • F
    • F#
    • G
    • Ab
  • Adicionar à lista

    0 comentários

    Ver todos os comentários

    Conseguiu tocar?

    0 Tocaram 0 Ainda não

    Grave um vídeo tocando Molly Town e nos envie!

    00:00 / 00:00
    Outros vídeos desta música
    Repetir Qualidade Automático
    Outros vídeos desta música
    00:00 / 00:00
    Automático

    Cifra Club Pro

    Aproveite o Cifra Club com benefícios exclusivos e sem anúncios
    Cifra Club Pro
    Aproveite o Cifra Club com benefícios exclusivos e sem anúncios
    OK