Cifra Club

Amor Maior

Jota Quest

Cifra: Principal
exibições 2.166.970
Tom: C
Primeira Parte:

Bb          A
  Eu quero ficar só 
Dm       Cm7
  Mas comigo só eu não consigo
Bb          A
  Eu quero ficar junto 
Dm       Cm7
  Mas sozinho só não é possível
Bb      A           Dm
  É preciso amar direito
     Cm7
Um amor de qualquer jeito
Bb      A              Dm
  Ser amor a qualquer hora
      Cm7
Ser amor de corpo inteiro

G                     Bb
  Amor de dentro pra fora
  C
Amor que eu desconheço


Refrao:

F               Am
  Quero um amor    maior
Dm                  G  Bb
  Amor maior que eu
F               Am
  Quero um amor    maior
Dm                     G  Bb
  Um amor maior que eu


Repete a Primeira Parte:


Bb          A
  Eu quero ficar só 
Dm       Cm7
  Mas comigo só eu não consigo
Bb          A
  Eu quero ficar junto 
Dm       Cm7
  Mas sozinho só não é possível
Bb      A           Dm
  É preciso amar direito
     Cm7
Um amor de qualquer jeito
Bb      A              Dm
  Ser amor a qualquer hora
      Cm7
Ser amor de corpo inteiro

G                     Bb
  Amor de dentro pra fora
  C
Amor que eu desconheço



Repete o Refrão:

F               Am
  Quero um amor    maior
Dm                  G  Bb
  Amor maior que eu
F               Am
  Quero um amor    maior
Dm                     G  Bb
  Um amor maior que eu


Segunda Parte:

Bb            A
  Então seguirei meu coração
Dm          Cm7                Bb
  Até o fim,  pra saber se é amor
      A
Magoarei mesmo assim
Dm
  Mesmo sem querer
Cm7                Bb
  Pra saber se é amor
         A          Dm
Mas estarei mais feliz
          Cm7
Mesmo morrendo de dor
G        Bb           C
  Pra saber se é amor,  se é amor


Repete o Refrao:

F               Am
  Quero um amor    maior
Dm                     G
  Um amor maior que eu
Bb
  Que iê-eu
F               Am
  Quero um amor    maior
Dm                     G
  Um amor maior que eu
     Bb
Um amor maior que eu


Solo:

1-
E|-----------------------------------------------------|
B|-----------------------------------------------------|
G|-----------5----5h7-5~--5h7--5~----------------------|
D|-3~---5h7----7---------------------------------------|
A|-----------------------------------------------------|
D|-----------------------------------------------------|

2-
E|-----------------------------------------------------|
B|-----6---6~--8b10-10-10r8p6--------------------------|
G|-5h7---7---------------------------------------------|
D|-----------------------------------------------------|
A|-----------------------------------------------------|
D|-----------------------------------------------------|



3-
E|-----------------------------------------------------|
B|--8b10r8b10r8p6----8b10r8b10r8p6---------------------|
G|-----------------------------------------------------|
D|-----------------------------------------------------|
A|-----------------------------------------------------|
D|-----------------------------------------------------|


4-
E|----------------------13----13-----------------------|
B|-13b15r13--13~--13h15----15--------------------------|
G|-----------------------------------------------------|
D|-----------------------------------------------------|
A|-----------------------------------------------------|
D|-----------------------------------------------------|


5-
E|-15b17~-17-17-17r15-13-15-13-12-13~------------------|
B|-----------------------------------------------------|
G|-----------------------------------------------------|
D|-----------------------------------------------------|
A|-----------------------------------------------------|
D|-----------------------------------------------------|


6-
E|------10-13p10-----10--------------------------------|
B|-8/10-----------10----13b15--------------------------|
G|-----------------------------------------------------|
D|-----------------------------------------------------|
A|-----------------------------------------------------|
D|-----------------------------------------------------|

7-
E|-10--------------------------------------------------|
B|----13p10-----10--10--------13-----------------------|
G|----------12----------12b14----14r12--10~------------|
D|-----------------------------------------------------|
A|-----------------------------------------------------|
D|-----------------------------------------------------|


Base do Solo:

F  Am  Dm  G  Bb 2x

F
Acordes para:
    Composição: Rogério FlausinoColaboração e revisão:
    • Floyd Martins
    • Leonardo Silva
    • Paulo Rodrigues

    0 comentários

      mostrar mais comentários

      Conseguiu tocar?

      159tocaram2ainda não

      Grave um vídeo tocando Amor Maior e mande pra gente!

      00:00 / 00:00
      outros vídeos desta música
      repetirqualidadeautomática
      Outro vídeos desta música
        00:00 / 00:00
        automática
        Capítulos
        • Tocando a Música
        • Dicas Iniciais / Equipamentos
        • Acordes da Primeira Parte
        • Tocando a Primeira Parte
        • Ensinando a Primeira Parte
        • Acordes do Refrão
        • Tocando o Refrão
        • Ensinando o Ritmo do Refrão
        • Dicas para a Segunda Parte
        • Tocando a Segunda Parte
        • Ensinando o ritmo da Segunda Parte
        • Tocando o Solo Final
        • Solo - Parte 1 de 7
        • Solo - Parte 2 de 7
        • Solo - Parte 3 de 7
        • Solo - Parte 4 de 7
        • Solo - Parte 5 de 7
        • Solo - Parte 6 de 7
        • Solo - Parte 7 de 7
        • Encerramento
        • Ficha Técnica
        OK