Notificações Amigos pendentes

      Jota Quest

      Na Moral

      427.019 exibições
      Tom: G
      Introdução: Em7  Bm7  Am7
      
      
      E|-----------------------------------------------------|
      B|-----------------------------------------------------|
      G|----14b16r14p12--14--14b16--12~-------12-14~--12~----|
      D|-12-------------------------------/14----------------|
      A|-----------------------------------------------------|
      E|-----------------------------------------------------|
      
      
      E|-----------------------------------------------------|
      B|-----------------------------------------------------|
      G|-------------12b-------------------------------------|
      D|-/14-12-14~------------------------------------------|
      A|-----------------------------------------------------|
      E|-----------------------------------------------------|
      
      
      E|-----------------------------------------------------|
      B|------------------------------------15b17-15~--------|
      G|----14b16r14p12--14--14b16--14~--12------------------|
      D|-12--------------------------------------------------|
      A|-----------------------------------------------------|
      E|-----------------------------------------------------|
      
      
      E|----15-17~--15~---------------15b--------------------|
      B|-17---------------/17-15-17~-------------------------|
      G|-----------------------------------------------------|
      D|-----------------------------------------------------|
      A|-----------------------------------------------------|
      E|-----------------------------------------------------|
      
      
      
      Refrão:
      
      Em7       Bm7     Am7
          Na moral, na moral (só na moral)
      Em7       Bm7  Am7
          Na moral
      Em7       Bm7     Am7
          Na moral, na moral (só na moral)
      Em7       Bm7  Am7
          Na moral
      
      
      Primeira Estrofe:
      
         Em7        Bm7   Am7
      Vivendo de folia e caos
                 Em7  Bm7        Am7
      Quebrando tudo,     pra variar
         Em7           Bm7     Am7
      Vivendo entre o sim e o não
               Em7  Bm7     Am7
      Levando tudo      na moral
        Em7         Bm7   Am7
      Uma manchete de jornal
                  Em7  Bm7      Am7
      Não vou deixar       me abalar
           Em7         Bm7  Am7
      Mais uma noite, carnaval
               Em7  Bm7        Am7
      A do Brasil,      só na moral
      
      
      Refrão:
      
      Em7       Bm7     Am7
          Na moral, na moral (só na moral)
      Em7       Bm7  Am7
          Na moral
      Em7       Bm7     Am7
          Na moral, na moral (só na moral)
      Em7       Bm7  Am7
          Na moral
      
      
      Segunda Estrofe:
      
       Em7           Bm7      Am7
      Viver entre o medo e a paz
              Em7  Bm7            Am7
      Pode fazer       pensarmos mais
             Em7           Bm7  Am7
      No que a gente tem que fazer
                 Em7  Bm7         Am7
      Pra ficar vivo,     pra variar
      
      
      Terceira Estrofe:
      
      C                Bm7          E4
        Quando tudo parece não ter lógica
                  E
      Bombas de amor
      
      Ttiros de amor
                C
      Drogas de amor
                    Bm7        Am7
      Qualquer paranoia vai virar prazer 
               (Passagem)
      De viver
      
      
      Refrão:
      
      Em7       Bm7     Am7
          Na moral, na moral (só na moral)
      Em7       Bm7  Am7
          Na moral
      Em7       Bm7     Am7
          Na moral, na moral (só na moral)
      Em7       Bm7  Am7
          Na moral
      
      Solo: Em7  Bm7  Am7
      
      
      Interlúdio:
      
      Me deixa tentar falar pra você 
      O que é viver
      O que é sentir
      O que é ter prazer se vivendo na moral
      Na moral, comportamento super natural
      Que é ficar no sapato e na humilde
      Pra pintar tudo que existe 
      Por dentro de bom
      Deixa aparecer
      Deixa acontecer super na moral
      
      
      Refrão:
      
      Em7       Bm7     Am7
          Na moral, na moral
      Em7       Bm7  Am7
          Na moral
      Em7       Bm7     Am7
          Na moral, na moral
      Em7       Bm7  Am7
          Na moral
       Em7       Bm7     Am7
          Na moral, na moral
      Em7       Bm7  Am7
          Na moral
      Em7       Bm7     Am7
          Na moral, na moral
      Em7       Bm7  Am7
          Na moral
      
      
      Solo do Final:
      
      
      E|-15b17----b17r15-12-12---15b17-----------------------|
      B|-----------------------------------------------------|
      G|-----------------------------------------------------|
      D|-----------------------------------------------------|
      A|-----------------------------------------------------|
      E|-----------------------------------------------------|
      
      
      E|-----------12-12-------------------------------------|
      B|--------12-12-12-15p12-------------------------------|
      G|-14b16-----------------14b16r14p12-14----12----------|
      D|--------------------------------------14-------------|
      A|-----------------------------------------------------|
      E|-----------------------------------------------------|
      
      
      E|--------12-15p12----12-------12-15p12----12----------|
      B|-15b17-----------15----15b17----------15----15b17----|
      G|-----------------------------------------------------|
      D|-----------------------------------------------------|
      A|-----------------------------------------------------|
      E|-----------------------------------------------------|
      
      
      E|-12-15p12----12-------12-15p12----12-----------------|
      B|----------15----15b17----------15----15b17-----------|
      G|-----------------------------------------------------|
      D|-----------------------------------------------------|
      A|-----------------------------------------------------|
      E|-----------------------------------------------------|
      
      
      E|-12-15p12----12-------12-15b17r15---12-12~---15b-----|
      B|----------15----15b17--------------------------------|
      G|-----------------------------------------------------|
      D|-----------------------------------------------------|
      A|-----------------------------------------------------|
      E|-----------------------------------------------------|
      
      
      E|-----------12-12-------------------------------------|
      B|--------12-12-12-15p12-------------------------------|
      G|-14b16-----------------14b16r14p12-14----12~~--------|
      D|--------------------------------------14-------------|
      A|-----------------------------------------------------|
      E|-----------------------------------------------------|
      
      
      E|-----------------------------------------------------|
      B|--------15-------------------------------------------|
      G|-14b16-----14b16r14p12-14--12~-----------------------|
      D|-----------------------------------------------------|
      A|-----------------------------------------------------|
      E|-----------------------------------------------------|
      
      
      E|----------12--14--15--17--15--17--17b19--------------|
      B|------12---------------------------------------------|
      G|-/12-------------------------------------------------|
      D|-----------------------------------------------------|
      A|-----------------------------------------------------|
      E|-----------------------------------------------------|
      
      
      E|-17b19r17p15--17b19r17p15--17b19r17p15--17~~---------|
      B|-----------------------------------------------------|
      G|-----------------------------------------------------|
      D|-----------------------------------------------------|
      A|-----------------------------------------------------|
      E|-----------------------------------------------------|
      
      
      E|-12h15p12----12--------------------------------------|
      B|----------15----17b20r17----17~~---------------------|
      G|-----------------------------------------------------|
      D|-----------------------------------------------------|
      A|-----------------------------------------------------|
      E|-----------------------------------------------------|
      

      Comentários 9

      140 .
      • Mauricio Mauricio: Em 06/04/2016 17:42

        Essa Música está em G , Não em D.

        • ruan ruan: Em 09/07/2016 22:38

          as versões mais atuais ao vivo são tocadas em C

      • adriano.silvapinheiro.58 adriano.silvapinheiro.58: Em 28/03/2016 20:57

        Esse merece vídeo aula.

      • Vinicius Vinicius: Em 21/09/2014 15:53

        pow uma video aula pra ese solo ai seria legal... show d mas... sem palavras... mas bom ñ tem ne?!

      • leeandrrolima leeandrrolima: Em 14/02/2014 18:58

        coloca a cifra certa

      • leeandrrolima leeandrrolima: Em 14/02/2014 18:57

        cifra ta errada

      • RodrigoGoncalvesdasChagas1 RodrigoGoncalvesdasChagas1: Em 01/08/2013 10:33

        Cara Essa Música Precisa de Vídeo Aula Não!

      • markintadeu markintadeu: Em 18/02/2013 14:27

        Video aula pf!

      • pedross pedross: Em 29/12/2011 18:22

        ei pessoal do cifra club vcs deviam colocar video aula

      140 cancelar

      conseguiu tocar?

      • •••
      vagner rogerio trinca11.450 visualizações
        ver covers de outras músicas »
        0:00 / 0:00

        Capítulos

          1 versão de baixo exibições contribuição e correção
          1 versão de Guitar Proformatodownloadscontribuição
          1 versão de partiturasformatodownloadscontribuição
          play/pausefechar subir/descer velocidade
          6ª corda E5ª corda A4ª corda D3ª corda G2ª corda B1ª corda E
            acordes
            transcrição verificada v.inny instrutor de guitarra
            publicidade
            fechar
            ok