Notificações Amigos pendentes

      Jota Quest

      Na Moral

      425.934 exibições
      Tom: D
      Intro 2x: Em7  Bm  Am 
      
      Solo: Em7  Bm  Am
      
      
      E|-------------------------------|-----------------------------------|
      B|-------------------------------|-----------------------------------|
      G|----14/16-14-12-14-14b16r14-12-|----12-14-14b16r14-12~----------12-|
      D|-12----------------------------|-12--------------------14-12-14----|
      A|-------------------------------|-----------------------------------|
      E|-------------------------------|-----------------------------------|
      
      
      E|-------------------------------|-------------15-17-15----------15-|
      B|-------------------------------|----17-15-17----------17-15-17----|
      G|----14/16-14-12-14-14b16r14-12-|-14-------------------------------|
      D|-12----------------------------|----------------------------------|
      A|-------------------------------|----------------------------------|
      E|-------------------------------|----------------------------------|
      
      
      Em7   Bm   Am
      Na moral, na moral (só na moral)
      Em7   Bm   Am
      Na moral!
      Em7   Bm   Am
      Na moral, na moral (só na moral)
      Em7   Bm   Am
      Na moral!
      
      Em7   Bm         Am
      Vivendo de folia e caos
      Em7   Bm         Am
      Quebrando tudo, pra variar
      Em7   Bm         Am
      Vivendo entre o sim e o não
      Em7   Bm          Am
      Levando tudo na moral
      Em7   Bm          Am
      Uma manchete de jornal
      Em7   Bm          Am
      Não vou deixar me abalar
      Em7   Bm          Am
      Mais uma noite, carnaval
      Em7   Bm          Am
      No Brasil, só na moral
      
      Em7   Bm   Am
      Na moral, na moral (só na moral)
      Em7   Bm   Am
      Na moral!
      Em7   Bm   Am
      Na moral, na moral (só na moral)
      Em7   Bm   Am
      Na moral!
      
      Em7   Bm          Am
      Viver entre o medo e a paz
      Em7   Bm          Am
      Pode fazer pensarmos mais
      Em7   Bm          Am
      No que a gente tem que fazer
      Em7   Bm          Am
      Pra ficar vivo, pra variar
      
      C             Bm           Am
      Quando tudo parece não ter lógica
      Bombas de amor, tiros de amor, drogas de amor
      C             Bm           Am
      Qualquer paranóia vai virar prazer de viver...
      
      Em7   Bm   Am
      Na moral, na moral (só na moral)
      Em7   Bm   Am
      Na moral!
      Em7   Bm   Am
      Na moral, na moral (só na moral)
      Em7   Bm   Am
      Na moral!
      
      ( Em7   Bm   Am ) 2x
      
      
      E|-------------------------------|-----------------------------------|
      B|-------------------------------|-----------------------------------|
      G|----14/16-14-12-14-14b16r14-12-|----12-14-14b16r14-12~----------12-|
      D|-12----------------------------|-12--------------------14-12-14----|
      A|-------------------------------|-----------------------------------|
      E|-------------------------------|-----------------------------------|
      
      
      E|-------------------------------|-------------15-17-15----------15-|
      B|-------------------------------|----17-15-17----------17-15-17----|
      G|----14/16-14-12-14-14b16r14-12-|-14-------------------------------|
      D|-12----------------------------|----------------------------------|
      A|-------------------------------|----------------------------------|
      E|-------------------------------|----------------------------------|
      
      
      Em7   Bm   Am
      Na moral, na moral (só na moral)
      Em7   Bm   Am
      Na moral!                          (2x)
      Em7   Bm   Am
      Na moral, na moral (só na moral)
      Em7   Bm   Am
      Na moral!

      Comentários 9

      140 .
      • Mauricio Mauricio: Em 06/04/2016 17:42

        Essa Música está em G , Não em D.

        • ruan ruan: Em 09/07/2016 22:38

          as versões mais atuais ao vivo são tocadas em C

      • adriano.silvapinheiro.58 adriano.silvapinheiro.58: Em 28/03/2016 20:57

        Esse merece vídeo aula.

      • Vinicius Vinicius: Em 21/09/2014 15:53

        pow uma video aula pra ese solo ai seria legal... show d mas... sem palavras... mas bom ñ tem ne?!

      • leeandrrolima leeandrrolima: Em 14/02/2014 18:58

        coloca a cifra certa

      • leeandrrolima leeandrrolima: Em 14/02/2014 18:57

        cifra ta errada

      • RodrigoGoncalvesdasChagas1 RodrigoGoncalvesdasChagas1: Em 01/08/2013 10:33

        Cara Essa Música Precisa de Vídeo Aula Não!

      • markintadeu markintadeu: Em 18/02/2013 14:27

        Video aula pf!

      • pedross pedross: Em 29/12/2011 18:22

        ei pessoal do cifra club vcs deviam colocar video aula

      140 cancelar

      conseguiu tocar?

      • •••
      vagner rogerio trinca11.438 visualizações
        ver covers de outras músicas »
        0:00 / 0:00

        Capítulos

          1 versão de baixo exibições contribuição e correção
          1 versão de Guitar Proformatodownloadscontribuição
          1 versão de partiturasformatodownloadscontribuição
          play/pausefechar subir/descer velocidade
          6ª corda E5ª corda A4ª corda D3ª corda G2ª corda B1ª corda E
            acordes
            publicidade
            fechar
            ok