Enviar cifraEntrar

Na Moral

Jota Quest

Cifra: Principal
exibições 430.537
Tom: G
Introdução: Em7  Bm7  Am7


E|-----------------------------------------------------|
B|-----------------------------------------------------|
G|----14b16r14p12--14--14b16--12~-------12-14~--12~----|
D|-12-------------------------------/14----------------|
A|-----------------------------------------------------|
E|-----------------------------------------------------|


E|-----------------------------------------------------|
B|-----------------------------------------------------|
G|-------------12b-------------------------------------|
D|-/14-12-14~------------------------------------------|
A|-----------------------------------------------------|
E|-----------------------------------------------------|


E|-----------------------------------------------------|
B|------------------------------------15b17-15~--------|
G|----14b16r14p12--14--14b16--14~--12------------------|
D|-12--------------------------------------------------|
A|-----------------------------------------------------|
E|-----------------------------------------------------|


E|----15-17~--15~---------------15b--------------------|
B|-17---------------/17-15-17~-------------------------|
G|-----------------------------------------------------|
D|-----------------------------------------------------|
A|-----------------------------------------------------|
E|-----------------------------------------------------|



Refrão:

Em7       Bm7     Am7
    Na moral, na moral (só na moral)
Em7       Bm7  Am7
    Na moral
Em7       Bm7     Am7
    Na moral, na moral (só na moral)
Em7       Bm7  Am7
    Na moral


Primeira Estrofe:

   Em7        Bm7   Am7
Vivendo de folia e caos
           Em7  Bm7        Am7
Quebrando tudo,     pra variar
   Em7           Bm7     Am7
Vivendo entre o sim e o não
         Em7  Bm7     Am7
Levando tudo      na moral
  Em7         Bm7   Am7
Uma manchete de jornal
            Em7  Bm7      Am7
Não vou deixar       me abalar
     Em7         Bm7  Am7
Mais uma noite, carnaval
         Em7  Bm7        Am7
A do Brasil,      só na moral


Refrão:

Em7       Bm7     Am7
    Na moral, na moral (só na moral)
Em7       Bm7  Am7
    Na moral
Em7       Bm7     Am7
    Na moral, na moral (só na moral)
Em7       Bm7  Am7
    Na moral


Segunda Estrofe:

 Em7           Bm7      Am7
Viver entre o medo e a paz
        Em7  Bm7            Am7
Pode fazer       pensarmos mais
       Em7           Bm7  Am7
No que a gente tem que fazer
           Em7  Bm7         Am7
Pra ficar vivo,     pra variar


Terceira Estrofe:

C                Bm7          E4
  Quando tudo parece não ter lógica
            E
Bombas de amor

Ttiros de amor
          C
Drogas de amor
              Bm7        Am7
Qualquer paranoia vai virar prazer 
         (Passagem)
De viver


Refrão:

Em7       Bm7     Am7
    Na moral, na moral (só na moral)
Em7       Bm7  Am7
    Na moral
Em7       Bm7     Am7
    Na moral, na moral (só na moral)
Em7       Bm7  Am7
    Na moral

Solo: Em7  Bm7  Am7


Interlúdio:

Me deixa tentar falar pra você 
O que é viver
O que é sentir
O que é ter prazer se vivendo na moral
Na moral, comportamento super natural
Que é ficar no sapato e na humilde
Pra pintar tudo que existe 
Por dentro de bom
Deixa aparecer
Deixa acontecer super na moral


Refrão:

Em7       Bm7     Am7
    Na moral, na moral
Em7       Bm7  Am7
    Na moral
Em7       Bm7     Am7
    Na moral, na moral
Em7       Bm7  Am7
    Na moral
 Em7       Bm7     Am7
    Na moral, na moral
Em7       Bm7  Am7
    Na moral
Em7       Bm7     Am7
    Na moral, na moral
Em7       Bm7  Am7
    Na moral


Solo do Final:


E|-15b17----b17r15-12-12---15b17-----------------------|
B|-----------------------------------------------------|
G|-----------------------------------------------------|
D|-----------------------------------------------------|
A|-----------------------------------------------------|
E|-----------------------------------------------------|


E|-----------12-12-------------------------------------|
B|--------12-12-12-15p12-------------------------------|
G|-14b16-----------------14b16r14p12-14----12----------|
D|--------------------------------------14-------------|
A|-----------------------------------------------------|
E|-----------------------------------------------------|


E|--------12-15p12----12-------12-15p12----12----------|
B|-15b17-----------15----15b17----------15----15b17----|
G|-----------------------------------------------------|
D|-----------------------------------------------------|
A|-----------------------------------------------------|
E|-----------------------------------------------------|


E|-12-15p12----12-------12-15p12----12-----------------|
B|----------15----15b17----------15----15b17-----------|
G|-----------------------------------------------------|
D|-----------------------------------------------------|
A|-----------------------------------------------------|
E|-----------------------------------------------------|


E|-12-15p12----12-------12-15b17r15---12-12~---15b-----|
B|----------15----15b17--------------------------------|
G|-----------------------------------------------------|
D|-----------------------------------------------------|
A|-----------------------------------------------------|
E|-----------------------------------------------------|


E|-----------12-12-------------------------------------|
B|--------12-12-12-15p12-------------------------------|
G|-14b16-----------------14b16r14p12-14----12~~--------|
D|--------------------------------------14-------------|
A|-----------------------------------------------------|
E|-----------------------------------------------------|


E|-----------------------------------------------------|
B|--------15-------------------------------------------|
G|-14b16-----14b16r14p12-14--12~-----------------------|
D|-----------------------------------------------------|
A|-----------------------------------------------------|
E|-----------------------------------------------------|


E|----------12--14--15--17--15--17--17b19--------------|
B|------12---------------------------------------------|
G|-/12-------------------------------------------------|
D|-----------------------------------------------------|
A|-----------------------------------------------------|
E|-----------------------------------------------------|


E|-17b19r17p15--17b19r17p15--17b19r17p15--17~~---------|
B|-----------------------------------------------------|
G|-----------------------------------------------------|
D|-----------------------------------------------------|
A|-----------------------------------------------------|
E|-----------------------------------------------------|


E|-12h15p12----12--------------------------------------|
B|----------15----17b20r17----17~~---------------------|
G|-----------------------------------------------------|
D|-----------------------------------------------------|
A|-----------------------------------------------------|
E|-----------------------------------------------------|
  • 1
  • 2
  • 3
  • 4
  • 5
  • 6
  • 7
  • 8
  • 9
  • 10
  • 11
  • 12

    0 comentários

      mostrar mais comentários

      Conseguiu tocar?

      18tocaram0ainda não

      Grave um vídeo tocando Na Moral e mande pra gente!

      00:00 / 00:00
      outros vídeos desta música
      repetirqualidadeautomática
      • automática
      Outro vídeos desta música
        00:00 / 00:00
        automática
        • automática
        1 versão de Tab de baixoexibiçõescontribuições
        1 versão de Guitar Proformatodownloadscontribuição
        1 versão de Partiturasformatodownloadscontribuição
        fecharplay/pause subir/descer velocidade
          acordes
          fechar
          OK
          Feedback