Cifra Club

O Sol

Jota Quest

Tab de baixo: Principal
exibições 47.944
Intro:
G|------------------------------------------------------------------------|
D|------------------------4--------------4--5--5--4-----------------------|
A|-----------------4-5-7----7-x-7-x7--7--------------7---5------x5--x5----|
E|-5-0-3-5-3-5------------------------------------------------------------|

Verso:
G|-------------------------------------------------------------|
D|-------------------------------------------------------------|
A|------------------7---7--7-----------------------5--5--5-----|
E|-5-0-3-5-3-5--5-7---5---5---0-2-3-0-3--0-3---3-5---3--3------|

G|-------------------------------------------------------------|
D|-------------------------------------------------------------|
A|--------------------7---7--7---------------------5-----5--5--|
E|3-4-5-0-3-5-3-5--5-7---5--5----0-2-3-0-3--0-3---3-5---3--3---|

Refrão:
G|--------------------------------------------------|
D|--------------------------------------------------|   (2x)
A|-------------7-x-7-x-7---5-x5-4-------------------|
E|-5-0-3-5-3-5---------------------7-5-x5-x5-5-5----|

No segundo Hey Medo:
G|-----------------------------------------------------------|
D|---------12------------12-----------15/17/15---------------|
A|12-12-12----12-12-12-12--14-15/17/15--------14-------------|
E|-----------------------------------------------------------|
Composição: Antônio Julio NastáciaColaboração e revisão:
  • Tiago Loureiro
  • Vitor
  • Gustavo Grochewski

0 comentários

    mostrar mais comentários

    Conseguiu tocar?

    1tocaram0ainda não

    Grave um vídeo tocando O Sol e mande pra gente!

    00:00 / 00:00
    outros vídeos desta música
    repetirqualidadeautomática
    Outro vídeos desta música
      00:00 / 00:00
      automática
      OK