Cifra Club

Estou Contigo

Jotta A

Cifra: Principal
exibições 166.463
Tom: E
Intro: E5  B/Eb  E5  B/Eb

Baixo:
G|------------------------------------------------------------|
D|---------1---------------1----------------------------------|
A|------------------------------------------------------------|
E|-0---0-0---------0---0-0--------14--14-14--13--14--14-14-13-|

Guitarra:
E|------------------------------------------------------|
B|------------------------------------------------------|
G|--------------------------------9-----9-8---9-----9-8-|
D|-2------2--------2-------2------9---9-------9---9-----|
A|-2---2-----1-----2----2-----1---7-----------7---------|
E|-0---------------0------------------------------------|

E9
A noite chegou, eu estou a clamar

   A9
O medo chegou, eu estou a chorar

    F#m7        C#m7                           B9            F#m9
Mas Tua palavra diz: "que o choro pode uma noite durar, e pela manhã a 

    B9    E9
alegria virá"

         E5              B9
Mas, Senhor, a noite é longa

    F#m7     C#m7  B9         E9  B9     C#m7     B9     A9
E demora a passar, e os meus inimigos estão a zombar de mim

        F#m                A9       C#m7     B9
Porém, olho para o céu, de onde me virá o socorro

        F#m            A9         B9
Então, ouço a Tua doce voz a me acalmar:

            E5                 B11
Eu estou contigo, não te deixarei

            F#m7               C#m7  B9
Durante a noite, tua voz ouvirei

                  E/G#             B11
Passo a noite contigo pra te guardar

            F#m7                        C#m7    B9   E5
 E, pela manhã, minha promessa em tua vida se cumprirá

C#m7              B9              A9              E  B9
Eu sou o Deus do dia, o Deus da noite, da madrugada

    E/G#        A9            C#m7   B9
Eu sou o Teu abrigo, estou contigo

     A9   G#m   C#
Não te deixarei

            F#                 C#
Eu estou contigo, não te deixarei

            G#m7               D#m7
Durante a noite, tua voz ouvirei

                  F#/A#           C#
Passo a noite contigo pra te guardar

           G#m7                        D#m7    C#9   F#
E, pela manhã, minha promessa em tua vida se cumprirá

            F#                 C#
Eu estou contigo, não te deixarei

            G#m7               D#m7
Durante a noite, tua voz ouvirei

                  F#/A#           C#
Passo a noite contigo pra te guardar

           G#m7                        D#m7    C#9   F#
E, pela manhã, minha promessa em tua vida se cumprirá}3x


Final(G#m7 F#/A# B9 C#9)
Acordes para:
    Colaboração e revisão:

    0 comentários

      mostrar mais comentários

      Conseguiu tocar?

      15tocaram2ainda não

      Grave um vídeo tocando Estou Contigo e mande pra gente!

      00:00 / 00:00
      outros vídeos desta música
      repetirqualidadeautomática
      Outro vídeos desta música
        00:00 / 00:00
        automática
        OK