Cifra Club

Aprenda

24 Hours

Joy Division

Cifra: Principal (violão e guitarra)
tom: F
Cada parte da música será identificada por "riff's".

1º riff:

E|-----------------------------------------------------------------|
B|-----------------------------------------------------------------|
G|-----------------------------------------------------------------|
D|-2-2-3-3-5-----------------------2-2-3-3-5-----------------------|
A|-----------3-------------------0-----------3-------------------0-|
E|-----------------------------------------------------------------|

E|-----------------------------------------------------------------|
B|-----------------------------------------------------------------|
G|-----------------------------------------------------------------|
D|-2-2-3-3-0-----------------------2-2-3-3-0-----------------------|
A|-------------------------------0-------------------------------0-|
E|-----------------------------------------------------------------|

E|-----------------------------------------------------------------|
B|-----------------------------------------------------------------|
G|-----------------------------------------------------------------|
D|-2-2-3-3-5-----------------------2-2-3-3-5-----------------------|
A|-----------3-------------------0-----------3-------------------0-|
E|-----------------------------------------------------------------|

E|-----------------------------------------------------------------|
B|-----------------------------------------------------------------|
G|-----------------------------------------------------------------|
D|-2-2-3-3-0-----------------------2-2-3-3-0--------------/8---8-7-|
A|-------------------------------0---------------------------------|
E|-----------------------------------------------------------------|

2º riff:

E|-----------------------------------------------------------------|
B|-----------------------------------------------------------------|
G|-----------------------------------------------------------------|
D|-----------------------------------------------------------------|
A|-8-8-7-7-5-5-5-5-5-5-5-5-5-5-5-5-8-8-7-7-5-5-5-5-5-5-5-5-5-5-5-5-|
E|-----------------------------------------------------------------|

E|-----------------------------------------------------------------|
B|-----------------------------------------------------------------|
G|-----------------------------------------------------------------|
D|-----------------------------------------------------------------|
A|-8-8-7-7-3-3-3-3-3-3-3-3-3-3-3-3-8-8-7-7-5-5-5-5-5-5-5-5-5-5-5-5-|
E|-----------------------------------------------------------------|

So this is permanence
Love shattered pride
What once was innocence
turned on its side
A cloud hangs over me
marks every move
Deep in the memory
what once was love

[1º riff]
Oh how I've realized
how I wanted time
Put into perspective
tried so hard to find
Just for one moment
I thought I'd found my way
Destiny unfolded
I watched it slip away

[2º riff]
Excessive flash points
beyond all reach
Solitary demands for
all I'd like to keep
Let's take a ride out
see what we can find
Valueless collection of
hopes and past desires

3º riff:

E|------------------------------------------------------------------|
B|------------------------------------------------------------------|
G|------------------------------------------------------------------|
D|-3-3-2-2-0-----------------------3-3-2-2--------------------------|
A|-----------------------------------------3------------------------|
E|------------------------------------------------------------------|

E|------------------------------------------------------------------|
B|------------------------------------------------------------------|
G|------------------------------------------------------------------|
D|-3-3-2-2-0-----------------------3-3-2-2-0------------------------|
A|------------------------------------------------------------------|
E|------------------------------------------------------------------|

[1º riff]
I never realized
the lengths I'd have to go
All the darkest corners of
a sense I didn't know
Just for one moment
I heard somebody call
Looked beyond the day in hand
There's nothing there at all

[2º riff]
Now that I've realized
how it's all gone wrong
Got to find some therapy
this treatment takes too long
Deep in the heart of
where sympathy held sway
Got to find my destiny
before it gets too late

riff final:

E|------------------------------------------------------------------|
B|------------------------------------------------------------------|
G|------------------------------------------------------------------|
D|-3-3-2-2-0-----------------------3-3-2-2--------------------------|
A|-----------------------------------------3------------------------|
E|------------------------------------------------------------------|

E|----------------------------------------------------------------|
B|----------------------------------------------------------------|
G|----------------------------------------------------------------|
D|-3-3-2-2-0-------3-3-2-2---------3-3-2-2-0-------3-3-2-2--------|
A|-------------------------3-------------------------------3------|
E|----------------------------------------------------------------|

E|-------------------------------------------------|
B|-------------------------------------------------|
G|-------------------------------------------------|
D|-3-3-2-2-0-------3-3-2-2---------2-2-3-3-5-------|
A|-------------------------3-----------------3-----|
E|-------------------------------------------------|
Composição de Joy Division
Colaboração e revisão:
  • Dennis 242
3.508 exibições
    • ½ Tom
    • A
    • Bb
    • B
    • C
    • Db
    • D
    • Eb
    • E
    • F
    • F#
    • G
    • Ab
  • Adicionar à lista

    0 comentários

    Ver todos os comentários

    Conseguiu tocar?

    0 Tocaram 0 Ainda não

    Grave um vídeo tocando 24 Hours e nos envie!

    00:00 / 00:00
    Outros vídeos desta música
    Repetir Qualidade Automático
    Outros vídeos desta música
    00:00 / 00:00
    Automático

    Cifra Club Pro

    Aproveite o Cifra Club com benefícios exclusivos e sem anúncios
    Cifra Club Pro
    Aproveite o Cifra Club com benefícios exclusivos e sem anúncios
    OK