Cifra Club

Aprenda

Incubation

Joy Division

Cifra: Principal (violão e guitarra)
tom: C
From: ** (Paul Thompson)





As always, timings are approximate at best.

"Melody":

E------------------------------------------------------------------------------|
B------------------------------------------------5-----------------------------|
G------7-----7--5---7-5-7-5----7-----7--5--7--5-----5--------------------------|
D---0-----0-----------------0-----0--------------------------------------------|
A------------------------------------------------------------------------------|
E------------------------------------------------------------------------------|

Something like this is played in place of chords in Substance version:

E-----------------------------------------|
B--------------5----8----5----------------|
G-----5--7--5----5----5-----5--7--5-------|
D-----------------------------------------|
A-----------------------------------------|
E-----------------------------------------|

Chords in live version:

E------------------------------------------------------------------------------|
B------------------------------------------------------------------------------|
G-----12--12--12--12--12-----12--12-----12>10--10--10--10----------------------|
D-----12--12--12--12--12-----12--12-----12>10--10--10--10----------------------|
A-----10--10--10--10--10-----10--10-----10>8---8---8---8-----------------------|
E------------------------------------------------------------------------------|

E------------------------------------------------------------------------------|
B------------------------------------------------------------------------------|
G------9---9---9---9---9------9---9------9>7---7---7---7-----------------------|
D------9---9---9---9---9------9---9------9>7---7---7---7-----------------------|
A------7---7---7---7---7------7---7------7>5---5---5---5-----------------------|
E------------------------------------------------------------------------------|

Additional chords (both versions, toward end of song):

E--------------------------------|
B--------------------------------|
G--14--14---14--14--14>12--------|
D--14--14---14--14--14>12--------|
A--12--12---12--12--12>10--------|
E--------------------------------|

of Iron) and the rather apocalyptic live version of Heart and Soul both from
the Shadowplay performance.)  Not included is the acoustic guitar Ian is
plinking on in the live version.

The Substance version appears to have synth added as a sort of background
filler, and the chord portion of the song in live versions is replaced by a
variation of the melody.

This song could hardly be considered complete without the unique bass portion...
Oh well.

Lyrics courtesy /dev/nul

Paul
--
Paul Thompson |                Did someone say punk?
              |           [your favorite disclaimer here]
              | *  THOMPSOP@*
Composição de Bernard Sumner / Ian Curtis / Peter Hook / Stephen Morris
684 exibições
    • ½ Tom
    • A
    • Bb
    • B
    • C
    • Db
    • D
    • Eb
    • E
    • F
    • F#
    • G
    • Ab
  • Adicionar à lista

    0 comentários

    Ver todos os comentários

    Conseguiu tocar?

    0 Tocaram 0 Ainda não

    Grave um vídeo tocando Incubation e nos envie!

    00:00 / 00:00
    Outros vídeos desta música
    Repetir Qualidade Automático
    Outros vídeos desta música
    00:00 / 00:00
    Automático

    Cifra Club Pro

    Aproveite o Cifra Club com benefícios exclusivos e sem anúncios
    Cifra Club Pro
    Aproveite o Cifra Club com benefícios exclusivos e sem anúncios
    OK