Cifra Club

Aprenda

No Love Lost

Joy Division

Cifra: Principal (violão e guitarra)
tom: A
Baixo 
--------------------------
--------------------------
--------------------------
-0-0-0-5---0-0-0-3--------

---------------------------------------------------------------------------
---------------------------------------------------------------------------
---------------------------------------------------------------------------
--7-7-7-8-7---5-----------7-7-7-8-7---5-------7-7-7-8-7---5----------------
--------------------7--------------------------7----------------------7----
---------------------------------------------------------------------------

   A5    A5         A5                                    A5         A5 
----5----5--------5---5--------------------------------------5--5------5--5-----
----5----5--------5---5--------------------------------------5--5------5--5-----
----6----6--------6---6--------------------------------------6--6------6--6-----
----7----7--------7---7--------------------------------------7--7------7--7-----
----7----7--------7---7--------------------------------------7--7------7--7-----
----5----5--------5---5---------5-5-5-5-5-5-5-5-5-(…)--------5--5------5--5-----
    G5         A5
--3--3-----5--5----------------------------------------------------------------
--3--3-----5--5----------------------------------------------------------------
--4--4-----6--6----------------------------------------------------------------
--5--5-----7--7-------7-7-7-8-7---5----------7-7-7-8-7---5---------------------
--5--5-----7--7---------------------------7-------------------------7----------
--3--3-----5--5----------------------------------------------------------------
                                A5         A5
-------------------------------5--5------5---5--------------------------------
-------------------------------5--5------5---5--------------------------------
-------------------------------6--6------6---6--------------------------------
---7-7-7-8-7---5---------------7--7------7---7--------------------------------
----------------------7--------7--7------7---7---------------------------------
-------------------------------5--5------5---5--------5-5-5-5-5-5-5-5-(…)
      A5         A5           G5           A5
--5---5------5--5------3---3------5--5-----------------------------------------------
--5---5------5--5------3---3------5--5----------------------------------------------
--6---6------6--6------4---4------6--6-----------------------------------------------
--7---7------7--7------5---5------7--7-----------------------------------------------
--7---7------7--7------5---5------7--7----------------------------------------------
--5---5------5--5------3---3------5--5-----------------------------------------------

(A5  E   G5  A5)
So long sitting here,
Didn't hear the warning.
Waiting for the tape to run.
We've been moving around in different situations,
Knowing that the time would come.
Just to see you torn apart,
Witness to your empty heart.
I need it.
I need it.
I need it.

--5-----------5---------10---------5----
--5-----------5---------10---------5----
--6-----------6---------11---------6----
--7-----------7---------12---------7----
--7-----------7---------12---------7----
--5---7--8----5---7-8---10---7-8---5----

--5-----------5---------10---------5----
--5-----------5---------10---------5----
--6-----------6---------11---------6----
--7-----------7---------12---------7----
--7-----------7---------12---------7----
--5---7--8----5---7-8---10---7-8---5----

Through the wire screen, the eyes of those standing outside looked in at her as into the cage of some rare creature in a zoo.
In the hand of one of the assistants she saw the same instrument
which they had that morning inserted deep into her body. She shuddered instinctively. No life at all in the house of dolls.
No love lost. No love lost.

(A5  E   G5  A5)
You've been seeing things,
In darkness, not in learning,
Hoping that the truth will pass.
No life underground, wasting never changing,
Wishing that this day won't last.
To never see you show your age,
To watch until the beauty fades,
I need it.
I need it.
I need it.
Composição de Bernard Sumner / Ian Curtis / Peter Hook / Stephen Morris
Colaboração e revisão:
  • mateus bretas
4.054 exibições
    • ½ Tom
    • A
    • Bb
    • B
    • C
    • Db
    • D
    • Eb
    • E
    • F
    • F#
    • G
    • Ab
  • Adicionar à lista

    0 comentários

    Ver todos os comentários

    Conseguiu tocar?

    0 Tocaram 0 Ainda não

    Grave um vídeo tocando No Love Lost e nos envie!

    00:00 / 00:00
    Outros vídeos desta música
    Repetir Qualidade Automático
    Outros vídeos desta música
    00:00 / 00:00
    Automático

    Cifra Club Pro

    Aproveite o Cifra Club com benefícios exclusivos e sem anúncios
    Cifra Club Pro
    Aproveite o Cifra Club com benefícios exclusivos e sem anúncios
    OK