Cifra Club

Ámame

Juanes

Cifra: Principal (violão e guitarra)
tom: G
(acordes com pestana)

(intro)   C (5x)   D (5x)

C
No puedo estar un día más
Con esta duda de saber si volverás
D
Tu silencio es como un comején
Que me come lento el corazón
C
Perdóname se que mentí
Yo soy humano y solo quiero que me des
D
Una última oportunidad
Para así poderte demostrar

(pré-refrão)
C                      D
Que me vuelvo loco por ti
                        C
Que sin ti no puedo vivir
                         D
Que mi vida es como un desierto
Cuando no estás
C                     D
Que no puedo ni trabajar
                      C
Que no puedo ni estudiar
                        F#m
Que no puedo aguantar más
Esta soledad que me va a matar

Por eso te digo

(refrão - con efecto)
E|--------7--------------7-------------------9-----------------9--------|
B|----- -----10------- -----10-----------10-----12---------10-----12----|
G|--9--------------9----------------11-----------------11---------------|
D|----------------------------------------------------------------------|
A|----------------------------------------------------------------------|
E|----------------------------------------------------------------------|

E|--7----5----3----2------9----7----5----3----|
B|--------------------------------------------|
G|--------------------------------------------|
D|--------------------------------------------|
A|--------------------------------------------|
E|--------------------------------------------|

(refrão)
       C
Ámame por más que quieras otra vez
                   D
Y no me dejes tan solo en el olvido

Es todo lo que yo te pido
          C
Te digo ámame hasta la muerte ámame
                   D
Que si tu mueres primero yo te juro
Cariño que me voy contigo amor

 C
Porque sin ti mi corazón
                                   D
Es un abismo tan profundo como el mar
Y un segundo es una eternidad
Como para no estar junto a ti
 C
Perdóname se que mentí
Yo soy humano y solo quiero que me

 D
Des una última oportunidad
Para así poderte demostrar

(pré-refrão)
(refrão)
(solo)
(pré-refrão)
(refrão)

 C
Ámame Oh, Oh, Ah, Ah
 D
Ámame
Composição de Juanes
Colaboração e revisão:
  • Natan Kelm
  • Lucas Fessel
8.534 exibições
    • ½ Tom
    • A
    • Bb
    • B
    • C
    • Db
    • D
    • Eb
    • E
    • F
    • F#
    • G
    • Ab
  • Adicionar à lista

    0 comentários

    Ver todos os comentários

    Conseguiu tocar?

    1 Tocaram 0 Ainda não

    Grave um vídeo tocando Ámame e nos envie!

    00:00 / 00:00
    Outros vídeos desta música
    Repetir Qualidade Automático
    Outros vídeos desta música
    00:00 / 00:00
    Automático

    Cifra Club Pro

    Aproveite o Cifra Club com benefícios exclusivos e sem anúncios
    Cifra Club Pro
    Aproveite o Cifra Club com benefícios exclusivos e sem anúncios
    OK