Cifra Club

Aprenda

Grinder

Judas Priest

Cifra: Principal (violão e guitarra)
tom: A
  INTRO: 4X
e|-----------------------------------|
B|-----------------------------------|
G|-----------------------------------|
D|-----------------------------------|
A|-7-----7-----7-----7-----7-10-10-9-|
E|-5-----5-----5-----5-----5--8--8-7-|
                                                                       
  VERSE: 2X
e|---------------------------------------------------------------------------
B|---------------------------------------------------------------------------
G|---------------------------------------------------------------------------
D|---------------------------------------------------------------------------
A|-7-----7-----7-----7-----7-10-10-9-----7-----7-----7-----7-----7-10-10-9---
E|-5-----5-----5-----5-----5--8--8-7-----5-----5-----5-----5-----5--8--8-7---
                                                                              
--------------------------------------------------------------------|
--------------------------------------------------------------------|
--------------------------------------------------------------------|
---------------------------5-5--------------------------------------|
-5-----5-----5-----5-----5-3-3-5--7-----7-----7-----7-----7-10-10-9-|
-3-----3-----3-----3-----3-----3--5-----5-----5-----5-----5--8--8-7-|
                                                                     
  CHORUS: 2X
e|-----------------------------------------------------|
B|-----------------------------------------------------|
G|-----------------------------------------------------|
D|-2-----4------4-------4-------4---2-----4-----7----4-|
A|-2-----4------4-------4-------4---2-----4-----7----4-|
E|-0-----2----2-2-2-2-2-2-2-2-2-2-2-0-----2-----5----2-|

  VERSE: 2X
e|---------------------------------------------------------------------------
B|---------------------------------------------------------------------------
G|---------------------------------------------------------------------------
D|---------------------------------------------------------------------------
A|-7-----7-----7-----7-----7-10-10-9-----7-----7-----7-----7-----7-10-10-9---
E|-5-----5-----5-----5-----5--8--8-7-----5-----5-----5-----5-----5--8--8-7---
                                                                              
--------------------------------------------------------------------|
--------------------------------------------------------------------|
--------------------------------------------------------------------|
---------------------------5-5--------------------------------------|
-5-----5-----5-----5-----5-3-3-5--7-----7-----7-----7-----7-10-10-9-|
-3-----3-----3-----3-----3-----3--5-----5-----5-----5-----5--8--8-7-|

  CHORUS: 2X
e|-----------------------------------------------------|
B|-----------------------------------------------------|
G|-----------------------------------------------------|
D|-2-----4------4-------4-------4---2-----4-----7----4-|
A|-2-----4------4-------4-------4---2-----4-----7----4-|
E|-0-----2----2-2-2-2-2-2-2-2-2-2-2-0-----2-----5----2-|
                                                         
  RHYTHM FOR THE SOLO: 2X
e|---------------------------------------------------------------------------
B|---------------------------------------------------------------------------
G|---------------------------------------------------------------------------
D|---------------------------------------------------------------------------
A|-7-----7-----7-----7-----10-10-9---7-----7-----7-----7-----10-10-9---------
E|-5-5-5-5-5-5-5-5-5-5-5-5--8--8-7---5-5-5-5-5-5-5-5-5-5-5-5--8--8-7---------
                                
                                end first time
-------------------------------|---------------------------------|
-------------------------------|---------------------------------|
-------------------------------|---------------------------------|
-------------------------5-5---|---------------------------------|
-5-----5-----5-----5-----3-3-5-|-7-----7-----7-----7-----10-10-9-|
-3-3-3-3-3-3-3-3-3-3-3-3-----3-|-5-5-5-5-5-5-5-5-5-5-5-5--8--8-7-|
  
 end second time
e|---------------|
B|---------------|
G|---------------|
D|---------------|
A|-7-----7-----7-|
E|-5-5-5-5-5-5-5-|
                                                                     
  BRIDGE: 2X
e|----------------------------------------------------------------------------
B|----------------------------------------------------------------------------
G|----------------------------------------------------------------------------
D|-2-----5---4-------4-------4-----------------------4-------4----------------
A|-2-----5---4-------4-------4-----2---2-2-2-4-------4-------4----------------
E|-0---0-3-0-2---2-2-2---2-2-2---2-0---0-0-0-2---2-2-2---2-2-2----------------
                                                                              
                                                            end bridge
-----------------------------------------------------------|------|
-----------------------------------------------------------|------|
-----------------------------------------------------------|------|
---------------------------------------2---------4-------4-|------|
---7---7-6-6-2-------2-------2-------2-0-4-------4-------4-|-2--4-|
-2-5---5-4-4-0---0-0-0---0-0-0---0-0-0---2---2-2-2---2-2-2-|-0--2-|

  FILL: 2X
e|-----------------------------------|
B|-----------------------------------|
G|-----------------------------------|
D|-----------------------------------|
A|-7-----7-----7-----7-----7-10-10-9-|
E|-5-----5-----5-----5-----5--8--8-7-|

  VERSE: 2X
e|---------------------------------------------------------------------------
B|---------------------------------------------------------------------------
G|---------------------------------------------------------------------------
D|---------------------------------------------------------------------------
A|-7-----7-----7-----7-----7-10-10-9-----7-----7-----7-----7-----7-10-10-9---
E|-5-----5-----5-----5-----5--8--8-7-----5-----5-----5-----5-----5--8--8-7---
                                                                              
--------------------------------------------------------------------|
--------------------------------------------------------------------|
--------------------------------------------------------------------|
---------------------------5-5--------------------------------------|
-5-----5-----5-----5-----5-3-3-5--7-----7-----7-----7-----7-10-10-9-|
-3-----3-----3-----3-----3-----3--5-----5-----5-----5-----5--8--8-7-|

  CHORUS: 4X                         end 1st, 2nd & 3rd time
e|----------------------------------|--------------------|
B|----------------------------------|--------------------|
G|----------------------------------|--------------------|
D|-2-----4------4-------4-------4---|-2-----4-----7----4-|
A|-2-----4------4-------4-------4---|-2-----4-----7----4-|
E|-0-----2----2-2-2-2-2-2-2-2-2-2-2-|-0-----2-----5----2-|
                                                                   
  end 4th time
e|--------------------|
B|--------------------|
G|--------------------|
D|-2-----4-----7----9-|
A|-2-----4-----7----9-|
E|-0-----2-----5----7-|
   
  GRIN  DER
e|---------|
B|---------|
G|---------|
D|-2-----4-|
A|-2-----4-|
E|-0-----2-|
Composição de Glenn Tipton / Håkan Lundqvist / K.K. Downing
8.226 exibições
    • ½ Tom
    • A
    • Bb
    • B
    • C
    • Db
    • D
    • Eb
    • E
    • F
    • F#
    • G
    • Ab
  • Adicionar à lista

    0 comentários

    Ver todos os comentários

    Conseguiu tocar?

    3 Tocaram 0 Ainda não

    Grave um vídeo tocando Grinder e nos envie!

    00:00 / 00:00
    Outros vídeos desta música
    Repetir Qualidade Automático
    Outros vídeos desta música
    00:00 / 00:00
    Automático

    Cifra Club Pro

    Aproveite o Cifra Club com benefícios exclusivos e sem anúncios
    Cifra Club Pro
    Aproveite o Cifra Club com benefícios exclusivos e sem anúncios
    OK