Cifra Club

Hell Patrol

Judas Priest

Cifra: Principal
exibições 12.023
Tom: A
------------------------------------------------------------------------
---------------------------------------------------------------3--------
4-----------------------------4--------------------------------2--------
4-----------------------------4--------------------------------0--------
2--2--2--2--2--2--2--2--2--2--2--2--2--2--2--2--2--2--2--2--------------
------------------------------------------------------------------------
PM 2's Hold 


---------------------------------------------------------------||-------
---------------------------------------------------------------||-------
---------------------------------4-----------------------------||-------
---------------------------------4-----------------------------||-------
---------------------------------2--2--2--2--2--2--2--2--2--2--||-------
---------------------------------------------------------------||--2----


Verse 
------------------------||----------------------------------------------
------------------------||----------------------------------------------
------------------------||----------------------------------------------
------------------------||--0-----------------0-----------------0-------
------1--1--1--2--2--2--||--2--2--2--2--2--2--2--2--2--2--2--2--2--2----
2--2--------------------||----------------------------------------------
Something like this PM 2's 

End 1 End 2 
------------------------------------|--------------|--------------------
------------------3-----------------|--------------|--------------------
------------------2-----------------|--2-----------|--2-----------------
---------5--4--2--0--0--0--0--0--0--|--2-----------|--2-----------4-----
2--2--2-----------------------------|--0--0--0--0--|--0--0--0--0--4-----
------------------------------------|--------------|--------------2-----


Chorus 
----||------------------------------------------------------------------
----||--------------------------------------------------------3---------
----||-----------------------4--------------------------------2--6------
----||--5-----7-----4--5--7--4--------------------------------0--6------
/---||--5-----7-----4--5--7--2--2--2--2--2--2--2--2--2--2--------4------
----||--3-----5-----2--3--5---------------------------------------------

------------------------------------------------------------------------
------------------------------------------------------------------------
4--2--4--------------------------------------4--------------------------
4--2--4-----------------------------5-----7--4--------------------------
2--0--2--2--2--2--2--2--2--2--2--2--5-----7--2--2--2--2--2--2--2--2-----
------------------------------------3-----5-----------------------------

------------------------------------------------------------||----------
---------3--------------------------------------------------||----------
---------2--6--4--2--4--------------------------------------||----------
---------0--6--4--2--4-----------------------------5-----7--||----------
2--2--------4--2--0--2--2--2--2--2--2--2--2--2--2--5-----7--||----------
---------------------------------------------------3-----5--||----------


Bridge(Both Glenn and KK) 
-------------------------------------------------------5--3---5/--||----
7-----5-----3/------7-----8-----5/------7-----5-----3-------5-----||----
------------------------------------------------------------------||----
------------------------------------------------------------------||----
------------------------------------------------------------------||----
------------------------------------------------------------------||----
Acordes para:
    Composição: Glenn Tipton / Håkan Lundqvist / K.K. DowningColaboração e revisão:
    • dougllas

    0 comentários

      mostrar mais comentários

      Conseguiu tocar?

      1tocaram0ainda não

      Grave um vídeo tocando Hell Patrol e mande pra gente!

      00:00 / 00:00
      outros vídeos desta música
      repetirqualidadeautomática
      Outro vídeos desta música
        00:00 / 00:00
        automática
        OK