Cifra Club

Além do Rio Azul

Julia Vitória

Cifra: Principal (violão e guitarra)
Selo Cifra Club: esta cifra foi revisada para atender aos critérios oficiais da nossa Equipe de Qualidade.
tom: G
[Intro] G  C/G  G  C/G

[Tab - Intro]

Parte 1 de 1
   G       C/G     G       C/G
E|------------------------------------------|
B|-3---3---1---1---3---3---1---1------------|
G|-0---0---0---0---0---0---0---0------------|
D|---0---0---2---2---0---0---2---2----------|
A|------------------------------------------|
E|-3-------3-------3-------3----------------|

[Primeira Parte]

[Tab - Primeira Parte]

Parte 1 de 4
   G       C/G     G       G/B     C9
E|-------------------------3---3---3---3----|
B|-3---3---1---1---3---3---3---3---3---3----|
G|-0---0---0---0---0---0-----0---0---0---0--|
D|---0---0---2---2---0---0------------------|
A|-------------------------2-------3---3----|
E|-3-------3-------3------------------------|

Parte 2 de 4
   D/C     G       G       C9      D/C    
E|-2---2-------------------3---3---2---2----|
B|-3---3---3---3---3---3---3---3---3---3----|
G|---2---2-0---0---0---0-----0---0---2---2--|
D|-----------0---0---0---0------------------|
A|-3-----------------------3-------3--------|
E|---------3-------3------------------------|

Parte 3 de 4
   Bm7     Em7     C9      D       G
E|-----------------3---3---2---2------------|
B|-3---3---3---3---3---3---3---3---3---3----|
G|-2---2---0---0-----0---0---2---2-0---0----|
D|---0---0---2---2---------0---------0---0--|
A|-2---------------3------------------------|
E|---------0-----------------------3--------|

Parte 4 de 4
   Bm7     C9      D4  D   G       G
E|---------3---3---3---2--------------------|
B|-3---3---3---3---3---3---3---3---3---3----|
G|-2---2-----0---0---2---2-0---0---0---0----|
D|---0---0---------0---------0---0---0---0--|
A|-2-------3--------------------------------|
E|-------------------------3-------3--------|

  G      C/G  G  G/B
Além do rio azul
    C9         D/C            G
As ruas são de ouro e de cristais
  C9        D/C    Bm7       Em7
Ali tudo é vida, ali tudo é paz
          C9  D        G   Bm7
Morte e choro,  nunca mais
            C9 D4  D        G
Tristeza e dor,      nunca mais

[Pré-Refrão]

[Tab - Pré refrão]

Parte 1 de 3
   F       C/E     G 
E|-1-------0-------3------------------------|
B|-1---1---1---1---3---3---3---3------------|
G|-2---2---0---0---0---0---0---0------------|
D|-3-3---3-2-2---2-0-0---0---0---0----------|
A|-3-------3-------2------------------------|
E|-1-------0-------3------------------------|

Parte 2 de 3
   F       C/E     G 
E|-1-------0-------3------------------------|
B|-1---1---1---1---3---3---3---3------------|
G|-2---2---0---0---0---0---0---0------------|
D|-3-3---3-2-2---2-0-0---0---0---0----------|
A|-3-------3-------2------------------------|
E|-1-------0-------3------------------------|

Parte 3 de 3
   F       C/E     D4      D       Em7
E|-1-------0-------3---3---2---2---0--------|
B|-1---1---1---1---3---3---3---3---3--------|
G|-2---2---0---0---2-0---0-2-0---0-0--------|
D|-3-3---3-2-2---2-0-------0-------2--------|
A|-3-------3-----------------------2--------|
E|-1-------0-----------------------0--------|

   F            C/E     G
Verei o grande rio da vida
  F        C/E    G
Claro como o cristal
   F             C/E           D4  D  Em7
Verei a face do meu mestre querido

[Refrão]

         Am7          D
Não haverá mais noite ali
         G  D9/F#            Em7
Não haverá        nenhum clamor
         Am7         D
Verei os olhos de Jesus
       B7(4)              B7
E tocarei seu corpo enfim

         Am7          D
Não haverá mais noite ali
         G  D9/F#            Em7
Não haverá        nenhum clamor
         Am7         D
Verei os olhos de Jesus
       B7(4)              B7
E tocarei seu corpo enfim

( Em7  D  C9 )
( Em7  D  C9  B7(4) B7 )

[Tab - Solo]

Parte 1 de 4
   Em7                  D           
E|--0h2-3-----------5h7-2---2---2---2--5h7--|
B|-0-------0---0--0---------3---3---3-------|
G|---------0---0--0-------2---2---2---------|
D|-------2---2---2------0-------------------|
A|------------------------------------------|
E|------0-----------------------------------|

Parte 2 de 4
   C9              
E|-0---0---0---0---8-7---0---3p2------------|
B|-----0---0---0-------8---1-----3---3---3--|
G|---0---0---0---0-----------------0--------|
D|-------------------------------------4----|
A|-3----------------------------------------|
E|-----------------8------------------------|

Parte 3 de 4
   Em7               D
E|-0---0---0---0-5/7-10-------7-------------|
B|-3---3---3---3----------7---7---7---------|
G|-0-0---0---0----------7---7---7---7-------|
D|-2-----------------0----------------------|
A|-2----------------------------------------|
E|-0----------------------------------------|

Parte 4 de 4
   C9              B7(4)   B7
E|-0---0---0---0-----------2---2------------|
B|-----0---0---0---5---5---4---4------------|
G|---0---0---0---0-----2---2---2------------|
D|-------------------4---4-4---4------------|
A|-3---------------2-------2---2------------|
E|------------------------------------------|

[Segunda Parte]

C9       D        G      D9/F#  Em7
   As nações andarão em sua    luz
C9       D        G       D9/F#  Em7
   E as portas jamais se fecha__rão
C9      D        G  D9/F#  Em7
   A cidade é de ouro     puro
    Am7
De Jaspe é seu muro
  D           G
Além do rio azul

[Ponte]

          G9        C/G    G
Morte e choro, tristeza e dor
 G     D     D     G   C9  
Nunca mais, nunca mais
 G/B      G         C/G    G
Morte e choro, tristeza e dor
 G     D     D     G   C/G
Nunca mais, nunca mais

          G               
Morte e choro, tristeza e dor
       D           G   C/G
Nunca mais, nunca mais
          G                
Morte e choro, tristeza e dor
       D           Em7
Nunca mais, nunca mais

[Refrão]

         Am7          D
Não haverá mais noite ali
         G  D9/F#            Em7
Não haverá        nenhum clamor
         Am7         D
Verei os olhos de Jesus
       B7(4)              B7
E tocarei seu corpo enfim

         Am7          D
Não haverá mais noite ali
         G  D9/F#            Em7
Não haverá        nenhum clamor
         Am7         D
Verei os olhos de Jesus
       B7(4)              B7  Em7
E tocarei seu corpo enfim
Outros vídeos desta música
    719.576 exibições
    • Simplificar cifra
      • ½ Tom
      • A
      • Bb
      • B
      • C
      • Db
      • D
      • Eb
      • E
      • F
      • F#
      • G
      • Ab
    • Adicionar à lista

    Afinação da cifra

    Afinador online

      0 comentários

      Ver todos os comentários

      Entre para o Cifra Club PRO

      Tenha acesso a benefícios exclusivos no App e no Site

      • Chega de anúncios

      • Mais recursos no app do Afinador

      • Atendimento Prioritário

      • Aumente seu limite de lista

      • Ajude a produzir mais conteúdo

      Capítulos
      • Apresentação
      • Tocando a Música
      • Acordes da Intro
      • Tocando a Intro
      • Ensinando a Intro
      • Acordes da Primeira Parte
      • Tocando a Primeira Parte
      • Ensinando a Primeira Parte
      • Acordes do Pré-Refrão
      • Tocando o Pré-Refrão
      • Ensinando o Pré-Refrão
      • Acordes do Refrão
      • Tocando o Refrão
      • Ensinando o Refrão
      • Tocando o Solo
      • Ensinando o Solo
      • Tocando a Segunda Parte
      • Ensinando a Segunda Parte
      • Dicas da Ponte
      • Tocando a Ponte
      • Ensinando a Ponte
      • Encerramento

      Cifra Club Pro

      Aproveite o Cifra Club com benefícios exclusivos e sem anúncios
      Cifra Club Pro
      Aproveite o Cifra Club com benefícios exclusivos e sem anúncios
      OK