Cifra Club

Benzin

Juliette

Cifra: Principal (violão e guitarra)
tom: A
[Intro] A  E  G#°  F#m
        G  A  Eb°  Dm
        A9  E  F#m  E/G#

   A             E    G#°  F#m      
E|-9----9-----9--7-10-9-7--5-----5-----9\---|
B|---------------9-------------7------------|
G|----9-----9----9-----------6-------6------|
D|-7------7------7----6----4-------4--------|
A|------------------------------------------|
E|------------------------------------------|

   G  A  Eb°        Dm 
E|-3--5------7------------------------------|
B|-3--5--------7----------6-----------------|
G|-4--6----4-----4------7-------------------|
D|-5--7---------------7---------------------|
A|-------6----------5-----------------------|
E|------------------------------------------|

   A9          E    F#m  E/G#
E|-------------4/5--5/7--7------------------|
B|-2--------2--5/7--7/9--9------------------|
G|-4----4------4----------------------------|
D|-2--2-------------------------------------|
A|-0------0---------------------------------|
E|------------------------------------------|

[Primeira Parte] 

A                 E     G#°  F#m
Eu já comprei passagem só de ida daqui
     G    A     Eb°      
Porque se a de volta eu tiver
    Dm             A9
Eu sei que eu nem vou

( E  F#m  E/G# )

[Pré-Refrão] 

A          C#m                     D
Eu sou gaivota que esqueceu como voar
          Dm                      F#m
Peixe de rio que já se perdeu no mar
       E     F#m  E/G#
Do seu olhar

[Refrão] 

     A          E       G#°      F#m
Mas se você chorar, benzin, não dá
     Em      A       D
Coração não vai guentar
        Dm       A9    E  F#m  E/G#
Te dou colo pra deitar
     A          E     G#°  F#m
Mas se você me pede pra ficar
         Em      A   D
Não vou mais me segurar
       Dm          A9    E  G#°
Nunca mais vou te soltar
F#m      Em
    Ai, yeah
A      Eb°  Dm
  Ai, yeah

( A9  E  F#m  E/G# )


[Primeira Parte] 

A                 E     G#°  F#m
Eu já comprei passagem só de ida daqui
     Em   A     D      
Porque se a de volta eu tiver
    Dm             A9
Eu sei que eu nem vou

( E  F#m  E/G# )

[Pré-Refrão] 

F#m        C#m                     D
Eu sou gaivota que esqueceu como voar
          Dm                      F#m
Peixe de rio que já se perdeu no mar
       E     F#m  E/G#
Do seu olhar

[Refrão] 

     A          E       G#°      F#m
Mas se você chorar, benzin, não dá
     Em      A       D
Coração não vai guentar
        Dm       A9    E  F#m  E/G#
Te dou colo pra deitar
     A          E     G#°  F#m
Mas se você me pede pra ficar
         Em      A   D
Não vou mais me segurar
       Dm          A9    E  F#m  E/G#
Nunca mais vou te soltar

     A          E       G#°      F#m
Mas se você chorar, benzin, não dá
   Fm  Em      A       D
Cora__ção não vai guentar
        Dm          A9   
Te dou colo pra deitar

[Final] E  G#°  F#m  Em
        A  Eb°  Dm  A9
00:00 / 00:00
Outros vídeos desta música
Repetir
Outros vídeos desta música
Composição de Jefferson Junior / Rapha Lucas / Umberto Tavares
Colaboração e revisão:
  • Thiago Almeida
2.835 exibições
    • ½ Tom
    • A
    • Bb
    • B
    • C
    • Db
    • D
    • Eb
    • E
    • F
    • F#
    • G
    • Ab
  • Adicionar à lista

    0 comentários

    Ver todos os comentários

    Conseguiu tocar?

    3 Tocaram 3 Ainda não

    Grave um vídeo tocando Benzin e nos envie!

    Entre para oCifra Club PRO

    Tenha acesso a benefícios exclusivos no App e no Site

    • Chega de anúncios

    • Prioridade de compra em lançamentos

    • Mais recursos no app do Afinador

    • Atendimento Prioritário

    • Descontos nos produtos Cifra Club

    • Ajude a produzir mais conteúdo

    00:00 / 00:00

    Cifra Club Pro

    Aproveite o Cifra Club com benefícios exclusivos e sem anúncios
    Cifra Club Pro
    Aproveite o Cifra Club com benefícios exclusivos e sem anúncios
    OK