Cifra Club

Cámara lenta

Jumbo

Cifra: Principal (violão e guitarra)
Selo Cifra Club: esta cifra foi revisada para atender aos critérios oficiais da nossa Equipe de Qualidade.
tom: D
INTRO (bajo toca continuamente en G y B)

Guitarra 1 (se repite todo el intro)
E|----------------------------------------------------------------------------------------|
B|----------------------------------------------------------------------------------------|
G|----------------------------------------------------------------------------------------|
D|-5-5-5-5-4-4-4-5--5-5-5-4-4-4-7--5-5-5-5-4-4-4-5--5-5-5-4-4-4-7-------------------------|
A|----------------------------------------------------------------------------------------|
E|----------------------------------------------------------------------------------------|

Guitarra 2
E|----------------------------------------------------------------------------------------|
B|----------------------------7------------------------7-6--------------------------------|
G|--6-7--4-7--6-7-7-7--9-7-9b---9r-7-6---6-7-7--4-7--7-----9-7----------------------------|
D|----------------------------------------------------------------------------------------|
A|----------------------------------------------------------------------------------------|
E|----------------------------------------------------------------------------------------|


VERSO

Aqui solamente toca el bajo, G y B continuamente).

hasta q dice: 'mi mente sólo dice aaahhh...'

Guitarra 2:
E|----------------------------------------------------------------------------------------|
B|----------------------------------------------------------------------------------------|
G|--4-5br-4---4-5br-4---4-5br-4---4-5br---------------------------------------------------|
D|----------------------------------------------------------------------------------------|
A|----------------------------------------------------------------------------------------|
E|----------------------------------------------------------------------------------------|



PDC ORO: (No estoy completamente seguro de esta secuencia)

La guitarra 1 toca los acordes 'completos' y la guitarra 2, en 5. [B5-A5-Bb5-B5-D5]

  Bm     A     Bb    Bm       D
 Quiero estar en un sueño   aaahhh



CORO:

Guitarra 1: Toca igual que en el intro. (el bajo también)

Guitarra 2:
E|----------------------------------------------------------------------------------------|
B|------7-------7-------7--------------7-------7-------7----------------------------------|
G|--7-4-----7-4-----7-4-----7-4----7-4-----7-4-----7-4-----7-4----------------------------|
D|----------------------------------------------------------------------------------------|
A|----------------------------------------------------------------------------------------|
E|----------------------------------------------------------------------------------------|

Luego sigue tocando la guitarra 1 el intro, hasta entrar al siguiente verso.



VERSO (Todo igual hasta el precoro)

PDC ORO (Igual al anterior)

CORO (Igual al anterior)


BRIDGE: ('vamos a 10...')


E|--------7-----|--------7-----|--------7-----|-----------|-------------------------------|
B|-7--6-7---7-6-|-7--6-7---7-6-|-7--6-7---7-6-|-----------|-------------------------------|
G|--------------|--------------|--------------|-7/9--9/7--|--7/9--9/7---------------------|
D|--------------|--------------|--------------|-----------|-------------------------------|
A|--------------|--------------|--------------|-----------|-------------------------------|
E|--------------|--------------|--------------|-----------|-------------------------------|

E|----------------------------------------------------------------------------------------|
B|----------------------------------------------------------------------------------------|
G|--9b-9r-7---7---9b-9r-7---7---9b-9r-7---7---9b-9r-7---7--------(| como 8 veces)-----------|
D|----------9-------------9-------------9-------------9-----------------------------------|
A|----------------------------------------------------------------------------------------|
E|----------------------------------------------------------------------------------------|


PDC ORO (Igual a los anteriores)

CORO (Igual a los anteriores, pero 2 veces)


OUTRO: (Con la guitarra 1 y el bajo tocando el CORO)

E|----------------------------------------------------------------------------------------|
B|----------------------------------------------------------------------------------------|
g--9B-9B-9B-9B----9B-9B-9B-9B-----9B-9B-9B-9B-----9B-9B-9B-9B----------------------------|
D|----------------------------------------------------------------------------------------|
A|----------------------------------------------------------------------------------------|
E|----------------------------------------------------------------------------------------|
Outros vídeos desta música
    44 exibições
      • ½ Tom
      • A
      • Bb
      • B
      • C
      • Db
      • D
      • Eb
      • E
      • F
      • F#
      • G
      • Ab
    • Adicionar à lista

    Afinação da cifra

    Afinador online

      0 comentários

      Ver todos os comentários

      Entre para o Cifra Club PRO

      Tenha acesso a benefícios exclusivos no App e no Site

      • Chega de anúncios

      • Badges exclusivas

      • Mais recursos no app do Afinador

      • Atendimento Prioritário

      • Aumente seu limite de lista

      • Ajude a produzir mais conteúdo

      Cifra Club Pro

      Aproveite o Cifra Club com benefícios exclusivos e sem anúncios
      Cifra Club Pro
      Aproveite o Cifra Club com benefícios exclusivos e sem anúncios
      OK