Notificações Amigos pendentes

      Juninho Afram

      Quebrantado

      106.400 exibições
      Tom: C
      Intro: C  Am  G  F
      
                    C
      Eu olho para cruz
                     G
      E para cruz eu vou
                           Am
      Do seu sofrer participar
                             F
      Da sua obra eu vou cantar
      
               C
      Meu Salvador
                  G
      Na cruz mostrou
                 Am
      O amor do pai
               F
      o justo Deus
      
      C
         Pela cruz, me chamou
      Am                         G
         Gentilmente me atraiu e eu
                                F
      Sem palavras me aproximo
                               C
      Quebrantado por seu amor (2x)
      
      Interlúdio: C  Am  G  F
      
                C
      Imerecida vida
                 G
      De graça recebi
                Am
      Por sua cruz
                    F
      Da morte me livrou
      
                  C
      Trouxe-me a vida
                     G
      Eu estava condenado
                     Am
      Mas agora pela cruz
                     F
      Eu fui reconciliado
      
      C
         Pela cruz, me chamou
      Am                         G
         Gentilmente me atraiu e eu
                               F
      Sem palavras me aproximo
                              C
      Quebrantado por seu amor (2x)
      
      Base: C  A  G  F
      
      Parte 1:
      
      
      E|-15----15----15----------------------------------|
      B|-15b17-15b17-15b17r15p13-15-13~------------------|
      G|--------------------------------9-9/10-10/12-12~-|
      D|-------------------------------------------------|
      A|-------------------------------------------------|
      E|-------------------------------------------------|  2x 
      
      
      Parte 2:
      
      
      E|-------------------------------------------------|
      B|-12b13-12b13r12p10-12~----10~-13b15-13b15 13b15~-|
      G|-----------------------/9------------------------|
      D|-------------------------------------------------|
      A|-------------------------------------------------|
      E|-------------------------------------------------|
      
      
      Parte 3:
      
      
      E|-------------------------------------------------|
      B|-15b17-T16/18p17T-17r15-15~----------------------|
      G|----------------------------3h5-3-7-5---5-7-5~---|
      D|----------------------------3h5-3-7-5-7-5-7-5~---|
      A|--------------------------------------7----------|
      E|-------------------------------------------------|
      
      
      Parte 4 - rápida:
      
      
      E|-------------------------------------------------|
      B|-------------------------------------------------|
      G|-5p2-5--7p-5-7--9p-7--9--12p-9--12--14p-12---14--|
      D|----5-------7-------10--------12----------14-----|
      A|-------------------------------------------------|
      E|-------------------------------------------------|
      
      
      Parte 5:
      
      
      E|------------------15-17-17b20-17b19-15p13-15--17b20---17b19-15p13--15-------|
      B|-13-15-13-15/--17-----------------------------------------------------------|
      G|----------------------------------------------------------------------------|
      D|----------------------------------------------------------------------------|
      A|----------------------------------------------------------------------------|
      E|----------------------------------------------------------------------------|
      
      
      Parte 6:
      
      
      E|-----12-12-12--17-17-17p15-15-15p12-12-12--|        
      B|-------------------------------------------|   
      G|--------------------------------------------|         
      D|-------------------------------------------|         
      A|-------------------------------------------|       
      E|-------------------------------------------|
      
      
      Parte 7:
      
      E|----------12-----------------| 
      B|-----15b17---15b17----13--15~|
      G|-----------------------------|
      D|-----------------------------|
      A|-----------------------------|
      E|-----------------------------| 
      
      
      Parte 8:
      
      E|12-13-12-------|
      B|--------15--13~|
      G|---------------|
      D|---------------|
      A|---------------|
      E|---------------|
      
      
      C
      Pela cruz, me chamou
      Am                      G
      Gentilmente me atraiu e eu
                              F
      Sem palavras me aproximo
                              C
      Quebrantado por seu amor (2x)
      
      Dm                      F
      Impressionante é o seu  amor
      Dm                 F
      Me redimiu e me mostrou
                 G
      O quanto é fiel (2x)

      Comentários 9

      140 .
      • João João: Em 03/09/2015 08:13

        A música ta em um tom e a escala do solo ta em outra.

      • João Victor João Victor: Em 29/12/2014 19:59

        o sol0o so ta certo a primeira parte pqp

      • Douglas Douglas: Em 23/09/2014 13:14

        Gente , pessoal da CifraCLUB, peço por favor, que faça um GP5 OU GP6, dessa música, no meio " Gospel " hoje ,nas igrejas ,essa está sendo

      • itheone_santos itheone_santos: Em 31/07/2014 12:02

        vídeo-aula galera

      • Ivan Ivan: Em 25/01/2014 09:40

        Este solo esta um pouco diferente...

      • Alisson Alisson: Em 01/08/2013 13:02

        kd a tablatura ?

        • Ivan Ivan: Em 25/01/2014 09:41

          Comentário removido

      • diego_0cesar diego_0cesar: Em 29/06/2013 17:42

        muito massa so falta eu aprender o solo ^^

      • breno_m_rosa breno_m_rosa: Em 16/04/2012 21:28

        linda linda linda kkk
        glórias a DEUS
        ao unico e vivo DEUS

      140 cancelar

      conseguiu tocar?

      • •••

      covers

      Grave um vídeo tocando Quebrantado e mande pra gente!

      Ex.: http://www.youtube.com/watch?v=0IvSvIwGdwk
      ver covers de outras músicas »
      0:00 / 0:00

      Capítulos

        1 versão de violão dificuldade exibições contribuição e correção
        1 versão de guitarra dificuldade exibições contribuição e correção
        1 versão de cavaco dificuldade exibições contribuição e correção
        1 versão de teclado dificuldade exibições contribuição e correção
        play/pausefechar subir/descer velocidade
        6ª corda E5ª corda A4ª corda D3ª corda G2ª corda B1ª corda E
          acordes
          publicidade
          fechar
          ok