Enviar cifraEntrar

Teus planos

Juninho Cassimiro

Cifra: Principal
exibições 186.092
Tom: D# (com acordes na forma de D) Capotraste na 1ª casa
Intro: G Am Bm Am D

SOLO DA INTRODUÇÃO :


E|------3-0-3h5-0  |------3-0-3-5-0|------3-0-3-5-5~|7-7-8-7-5-3-0-3/5-0|
B|3-3-5-----------3|3-3-5----------|3-3-5-----------|-------------------| 
G|-----------------|---------------|----------------|-------------------|
D|-----------------|---------------|----------------|-------------------|
A|-----------------|---------------|----------------|-------------------|
E|-----------------|---------------|----------------|-------------------| 


G
Eu me abro ao Teu querer
                  Am
Eu me rendo a Tua voz.
               Bm
Quero me submeter.
                   Am  D
Quero conhecer Teus planos.
G
Os passos que dei sem você,
                   Am
Só me fizeram fracassar.
                     Bm
O tanto que eu já chorei..
                      Am    D
Me arrependo dos meus planos
Am       C         D
Sem Ti nada posso fazer.
             Am
Onde eu posso ir
       C                   Em            F C  D
Se o céu que eu procuro só vira por Tua voz?

G                 F                          C
Os meus passos são Teus, o meu próximo minuto é Teu.
D                              G
Se não for assim, não me deixe ir.
                    F
Dou minha mão para Ti
                           C
Fecho os olhos e confio em Ti,
D              G  F  C  D
Leva-me Senhor.

Intro: G Am Bm Am D
SOLO :

E|------3-0-3h5-0  |------3-0-3-5-0|------3-0-3-5-5~|7-7-8-7-5-3-0-3/5-0|
B|3-3-5-----------3|3-3-5----------|3-3-5-----------|-------------------| 
G|-----------------|---------------|----------------|-------------------|
D|-----------------|---------------|----------------|-------------------|
A|-----------------|---------------|----------------|-------------------|
E|-----------------|---------------|----------------|-------------------| 



Am       C         D
Sem Ti nada posso fazer.
             Am
Onde eu posso ir
       C                   Em            F C  D
Se o céu que eu procuro só vira por Tua voz?

G                 F                          C
Os meus passos são Teus, o meu próximo minuto é Teu.
D                              G
Se não for assim, não me deixe ir.
                    F
Dou minha mão para Ti
                           C
Fecho os olhos e confio em Ti,
D              G  F  C  D
Leva-me Senhor.
  • 1
  • 2
  • 3
  • 4
  • 5
  • 6
  • 7
  • 8
  • 9
  • 10
  • 11
  • 12
    Acordes para:
      Colaboração e revisão:

      0 comentários

        mostrar mais comentários

        Conseguiu tocar?

        11tocaram1ainda não

        Grave um vídeo tocando Teus planos e mande pra gente!

        00:00 / 00:00
        outros vídeos desta música
        repetirqualidadeautomática
        • automática
        Outro vídeos desta música
          00:00 / 00:00
          automática
          • automática
          Acordes para:violão e guitarra
          dificuldadeexibiçõescontribuições
          fecharplay/pause subir/descer velocidade
            Acordes para:violão e guitarra
            acordes
            fechar
            OK