Cifra Club

Aprenda

True Colors

Justin Timberlake

Cifra: Principal (violão e guitarra)
tom: E (forma dos acordes no tom de C) Capotraste na 4ª casa
[Intro]  Am  G4/B  C  F9
         Am  G4/B  C  F9

         Am      G4/B      C         F9
E|-3-----3----3-----3----3------------------|
B|---0-1--------0-1----------0h1------0-1---|
G|-------------------------0--------2-----2-|
D|----------------------------------3-------|
A|-0----------2----------3------------------|
E|------------------------------------------|

         Am      G4/B      C         F9
E|-3-----3----3-----3----3------------------|
B|---0-1--------0-1----------0h1------------|
G|-------------------------0--------2-------|
D|----------------------------------3-------|
A|-0----------2----------3------------------|
E|------------------------------------------|

[Primeiro e Segundo Verso]

         Am      G6          C         F9
E|-----------------------0---0------1---1---|
B|-1---1------0---0--------1---1------1---1-|
G|---2---2------0---0-----------------------|
D|------------------------------------------|
A|-0---0-----------------3---3------3---3---|
E|------------3---3-------------------------|

[Primeiro e Segundo Verso]

         Am      G6          F9    C
E|-----------------------1------0-----------|
B|-1---1------0---0--------1----1-----------|
G|---2---2------0---0-----------------------|
D|------------------------------------------|
A|-0---0-----------------3------3-----------|
E|------------3---3-------------------------|

               Am   G6
Your with the sad eyes 
C                 F/C
Don't be discouraged 
   Am          G6
Oh I realize 
      C               F/C
It's hard to take courage 
      Am              G6
In a world full of people 
C                  F/C
You can lose sight of it all 
         Am          G6
And the darkness, inside you 
               F/C       C
Can make you feel so small 

( Am  G4/B  C  F9 )

            Am   G6
Show me a smile then 
C            F/C             Am
Don't be unhappy, can't remember 
 G6       C               F/C
When I last saw you laughing 
         Am               G6
If this world makes you crazy 
             C             F/C
And you've taken all you can bear 
 Am               G6
Just you call me up 
              F/C           C
'Cause I will always be there 

[Refrão]

      F/C       C          G6
E|-1---1------0---0-------------------------|
B|---1---1------1---1----0---0---0---0------|
G|-------------------------0---0---0---0----|
D|------------------------------------------|
A|-3---3------3---3-------------------------|
E|-----------------------3---3---3---3------|

         F/C      C       F/C   G
E|-1---1------0---0------1----3-------------|
B|---1---1------1---1----1----3-------------|
G|------------------------------------------|
D|------------------------------------------|
A|-3---3------3---3------3------------------|
E|----------------------------3-------------|

         F/C      C        E      Am
E|-1---1------0---0------0-1----0-0---------|
B|---1---1------1---1----0------1-1---------|
G|-----------------------1------2-----------|
D|-----------------------2------2-----------|
A|-3---3------3---3------2------0-----------|
E|-----------------------0------------------|

         F/C      C       F/C        C
E|-1---1------0---0------1---1------0---0---|
B|---1---1------1---1------1---1------1---1-|
G|------------------------------------------|
D|------------------------------------------|
A|-3---3------3---3------3---3------3---3---|
E|------------------------------------------|

       G
E|-3---3---3---3---3------------------------|
B|---3---3---3---3-3------------------------|
G|-----------------0------------------------|
D|-----------------0------------------------|
A|-----------------2------------------------|
E|-3---3---3---3---3------------------------|

         Am      G4/B      C         F9
E|-3-----3----3-----3----3------------------|
B|---0-1--------0-1----------0h1------------|
G|-------------------------0-------2--------|
D|---------------------------------3--------|
A|-0----------2----------3------------------|
E|------------------------------------------|

              F/C   C
And I see your true colors 
G6
Shining through 
           F/C  C
I see your true colors 
     F/C         G
And that's why I love you

     F/C     C        E        Am
So don't be afraid to let them show 
     F/C   C
Your true colors 
F/C  C         G
True colors are beautiful
           F/C  C
I see your true colors
G6
Shining through (true colors)
          F/C   C
I see your true colors
    F/C          G
And that's why I love you
    F/C      C        E        Am
So don't be afraid to let them show
     F/C  C
Your true colors (true colors)
F/C  C         G
True colors are beautiful
       (Am  G4/B  C  F9)
Like a rainbow
                  (Am  G4/B  C  F9)
Ooh ooh ooh like a rainbow


             Am
Can't remember 
 G6       C               F/C
When I last saw you laughing 
         Am               G6
If this world makes you crazy 
             C             F/C
And you've taken all you can bear 
 Am               G6
Just you call me up 
              F/C           C
'Cause I will always be there 


              F/C   C
And I see your true colors 
G6
Shining through 
           F/C  C
I see your true colors 
     F/C         G
And that's why I love you

     F/C     C        E        Am
So don't be afraid to let them show 
     F/C   C
Your true colors 
F/C  C         G
True colors are beautiful
           F/C  C
I see your true colors
G6
Shining through (true colors)
          F/C   C
I see your true colors
    F/C          G
And that's why I love you
    F/C      C        E        Am
So don't be afraid to let them show
     F/C  C
Your true colors (true colors)
F/C  C         G
True colors are beautiful
       (Am  G4/B  C  F9)
Like a rainbow
                  (Am  G4/B  C  F9)
Ooh ooh ooh like a rainbow
Composição de Billy Steinberg / Tom Kelly
36.318 exibições
  • Simplificar cifra
    • ½ Tom
    • A
    • Bb
    • B
    • C
    • Db
    • D
    • Eb
    • E
    • F
    • F#
    • G
    • Ab
  • Adicionar à lista

    0 comentários

    Ver todos os comentários

    Conseguiu tocar?

    6 Tocaram 1 Ainda não

    Grave um vídeo tocando True Colors e nos envie!

    00:00 / 00:00
    outros vídeos desta música
    repetir qualidade Automático
    Outros vídeos desta música
    00:00 / 00:00
    Automático

    Cifra Club Pro

    Aproveite o Cifra Club com benefícios exclusivos e sem anúncios
    Cifra Club Pro
    Aproveite o Cifra Club com benefícios exclusivos e sem anúncios
    OK