Cifra Club

Aprenda

Sink That Ship

Kaiser Chiefs

Cifra: Principal (violão e guitarra)
tom: D
                                SINK THAT SHIP
             (Released as a B-Side On The I Predict A Riot Single in 2005)

Transcribed by Donkey fly

This is a B-side on the re-release of i predict a riot. Im surprised this wasnt on the album
as it is a vry good song. You may of heard this song on the  Burnout Revenge advertisement. 
This is pretty much correct , im not 100% sure on the interludes but they sound very close.






   Intro X 2
    Gtr I
||----------------------------------------------------------------------
||o---------------------------------------------------------------------
||----------------------------------------------------------------------
||----------------------------------------------------------------------
||o-3-3-3-3-3-3-3-3--3-3-3-3-3-3-3-3------------------------------------
||-------------------------------------4-4-4-4-4-4-6-6-6-6-6-6-6-6-6-4--

-------------------------------------------------------------------||
------------------------------------------------------------------o||
-------------------------------------------------------------------||
-------------------------------------------------------------------||
------------------------------------------------------------------o||
--3-3-3-3-3-3-3-3-3-3-3-3-3-3-3-3--6-6-6-6-6-6-6-6-3-3-3-3-3-3-3-3-||

   Verse x 2
||-------------------------------------------------------------||
||o-----------------------------------------------------------o||
||--5-5--------------------------------------------------------||
||--5-5-8-8-8-3-3-3--3-6-6-6-6-6-6-6-6-5-5-5-5-5-5-5-5s7s9-----||
||o-3-3-8-8-8-3-3-3--3-6-6-6-6-6-6-6-6-5-5-5-5-5-5-5-5s7s9----o||
||------6-6-6-1-1-1--1-4-4-4-4-4-4-4-4-3-3-3-3-3-3-3-3s5s7-----||


 Interlude
  ~~~~~~~~~~~~~~~~~~~~~~
|--------------------------|
|--------------------------|
|--------------------------|
|--------------------------|
|-3s====1-------3s====1----|
|--------------------------|



 Interlude 2
  ~~~~~~~~~~~~~~~~~~~   ~
|----------------------------|
|----------------------------|
|-------8-7-5---10-9---------|
|--------------------10-8----|
|-3s1------------------------|
|----------------------------|


   Chorus x 2
||----------------------------------------------------------------------------------
||o---------------------------------------------------------------------------------
||--3-3-3-3-3-3-3-3-3-3-3-3-3-3-3-3-10-10-10-10-10-10-10-10-10-10-10-10-10-10-10-10-
||--3-3-3-3-3-3-3-3-3-3-3-3-3-3-3-3-10-10-10-10-10-10-10-10-10-10-10-10-10-10-10-10-
||o-1-1-1-1-1-1-1-1-1-1-1-1-1-1-1-1--8--8--8--8--8--8--8--8--8--8--8--8--8--8--8--8-
||----------------------------------------------------------------------------------

----------------------------------------------------------------------||
---------------------------------------------------------------------o||
7-7-7-7-7-7-7-7-7-7-7-7-7-7-7-7--3-3-3-3-3-3-3-3--3-3-3-3-3-3-3-3-----||
7-7-7-7-7-7-7-7-7-7-7-7-7-7-7-7--3-3-3-3-3-3-3-3--3-3-3-3-3-3-3-3-----||
5-5-5-5-5-5-5-5-5-5-5-5-5-5-5-5--1-1-1-1-1-1-1-1--1-1-1-1-1-1-1-1----o||
----------------------------------------------------------------------||

 Interlude 3
  ~~~~
|-----------------------------|
|----------------8-6-5--------|
|-----10-8-7-----------5------|
|------------8-5---------3----|
|-3s1----------3---------1----|
|-----------------------------|


   Verse x 2
||-------------------------------------------------------------||
||o-----------------------------------------------------------o||
||--5-5--------------------------------------------------------||
||--5-5-8-8-8-3-3-3--3-6-6-6-6-6-6-6-6-5-5-5-5-5-5-5-5s7s9-----||
||o-3-3-8-8-8-3-3-3--3-6-6-6-6-6-6-6-6-5-5-5-5-5-5-5-5s7s9----o||
||------6-6-6-1-1-1--1-4-4-4-4-4-4-4-4-3-3-3-3-3-3-3-3s5s7-----||


 Interlude 2
  ~~~~~~~~~~~~~~~~~~~   ~
|----------------------------|
|----------------------------|
|-------8-7-5---10-9---------|
|--------------------10-8----|
|-3s1------------------------|
|----------------------------|


   Chorus x 2
||----------------------------------------------------------------------------------
||o---------------------------------------------------------------------------------
||--3-3-3-3-3-3-3-3-3-3-3-3-3-3-3-3-10-10-10-10-10-10-10-10-10-10-10-10-10-10-10-10-
||--3-3-3-3-3-3-3-3-3-3-3-3-3-3-3-3-10-10-10-10-10-10-10-10-10-10-10-10-10-10-10-10-
||o-1-1-1-1-1-1-1-1-1-1-1-1-1-1-1-1--8--8--8--8--8--8--8--8--8--8--8--8--8--8--8--8-
||----------------------------------------------------------------------------------

----------------------------------------------------------------------||
---------------------------------------------------------------------o||
7-7-7-7-7-7-7-7-7-7-7-7-7-7-7-7--3-3-3-3-3-3-3-3--3-3-3-3-3-3-3-3-----||
7-7-7-7-7-7-7-7-7-7-7-7-7-7-7-7--3-3-3-3-3-3-3-3--3-3-3-3-3-3-3-3-----||
5-5-5-5-5-5-5-5-5-5-5-5-5-5-5-5--1-1-1-1-1-1-1-1--1-1-1-1-1-1-1-1----o||
----------------------------------------------------------------------||

 Outro part 1 x 2
|--------------------------------------------------------------|
|--------------------------------------------------------------|
|--------------------------------------------------------------|
|--------------------------------------------------------------|
|-3-3-3-3-3-3-3-3----------------------------------------------|
|-----------------4-4-4-6-6-3-3-3-3-3-3-3-3-6-6-6-6-6-6-6-6----|

 Outro Part 2 x 2
|--------------------------------------------------------------|
|--------------------------------------------------------------|
|-5-5-5-5-5-5-5-5----------------------------------------------|
|-5-5-5-5-5-5-5-5-6-6-6-8-8-5-5-5-5-5-5-5-5-8-8-8-8-8-8-8-8----|
|-3-3-3-3-3-3-3-3-6-6-6-8-8-5-5-5-5-5-5-5-5-8-8-8-8-8-8-8-8----|
|-----------------4-4-4-6-6-3-3-3-3-3-3-3-3-6-6-6-6-6-6-6-6----|

 End On......
|------|
|------|
|-5----|
|-5----|
|-3----|
|------|



Order Of Play

Intro X 2
Verse x 2
Interlude 
Verse x 2
Interlude 2
Chorus x 2
Interlude 3
Verse x 2
Interlude 2
Chorus x 2
Outro 1 x 2
Outro 2 x 2
End On
Composição de Kaiser Chiefs
360 exibições
    • ½ Tom
    • A
    • Bb
    • B
    • C
    • Db
    • D
    • Eb
    • E
    • F
    • F#
    • G
    • Ab
  • Adicionar à lista

    0 comentários

    Ver todos os comentários

    Conseguiu tocar?

    0 Tocaram 0 Ainda não

    Grave um vídeo tocando Sink That Ship e nos envie!

    00:00 / 00:00
    outros vídeos desta música
    repetir qualidade Automático
    Outros vídeos desta música
    00:00 / 00:00
    Automático

    Cifra Club Pro

    Aproveite o Cifra Club com benefícios exclusivos e sem anúncios
    Cifra Club Pro
    Aproveite o Cifra Club com benefícios exclusivos e sem anúncios
    OK