Cifra Club

Way Down We Go

Kaleo

Cifra: Principal (violão e guitarra)
tom: Bb (forma dos acordes no tom de A) Capotraste na 1ª casa
[Intro]

Am         D9          F   
Oh Father tell me, we get 
      Dm  Am
What we deserve 
    F        Dm   Am 
We get what we deserve       

[Refrão]
  
                 Am   F   Dm 
And way down we go-o-o-o-o 
             Am   F   Dm 
Way down we go-o-o-o-o 
                 Am   F  Dm 
Say way down we go 
             Am  F  Dm 
Way down we go 

[Primeira Parte]

                 Am       F     Dm 
Oh You let your feet run wild 
                    Am     F    Dm 
Time has come as we all oh, go down 
                  Am      F    Dm 
Yeah but for the fall oh, my 
                         Am          F    Dm 
Do you dare to look him right in the eyes? 

[Pré-Refrão]

                  Am                          G6 
'Cause they will run you down, down til the dark 
                  F                          Dm 
Yes and they will run you down, down til you fall 
              Am                         G 
And they will run you down, down til you go 
                  F               Dm 
Yeah so you can't crawl no more 

[Refrão]

               Am   F   Dm 
And way down we go-o-o-o-o 
             Am  F  Dm 
Way down we go 
                Am  F  Dm 
Say way down we go 
                  G6                         Dm 
'Cause they will run you down, down til you fall 
             
         Am     F  Dm 
Way down we go 

[Solo] Am  F  Dm 

[Ponte]

            Am 
Uhh uhh uhh uhh uhh uhh uhh 
            C 
Uhh uhh uhh uhh uhh uhh uhh 
            F 
Uhh uhh uhh uhh uhh uhh uhh 
       Dm 
Uh uhhhh uh 

            Am 
Uhh uhh uhh uhh uhh uhh uhh 
            G 
Uhh uhh uhh uhh uhh uhh uhh 
            F 
Uhh uhh uhh uhh uhh uhh uhh 
     Dm 
Uh uhhhh 

[Final]
   
E|---4-6-b9-6-4-6~----4-6-b9-6-4-6~---------|
B|-6----------------6-----------------------|
G|------------------------------------------|
D|------------------------------------------|
A|------------------------------------------|
E|------------------------------------------|

E|---4-6-b9-6p4h6~--6-6-6-------------------|
B|-6----------------------------------------|
G|------------------------------------------|
D|------------------------------------------|
A|------------------------------------------|
E|------------------------------------------|

E|---4-6-b9-6-4-6~----4-6-b9-6-4-6~---------|
B|-6----------------6-----------------------|
G|------------------------------------------|
D|------------------------------------------|
A|------------------------------------------|
E|------------------------------------------|

E|---4-6-4----------------------------------|
B|-6-------6--------------------------------|
G|-----------8p6h8~-8-6---------------------|
D|------------------------------------------|
A|------------------------------------------|
E|------------------------------------------|
            Am 
Oh bab-bab-yeah 
G         F 
Wow baby-a-aha 
Dm     Am 
Baby 
G           F 
Way down we go 
 Dm        Am     G         F  
Yeah             Yeahhhhhhh, no mmm 

Dm               Am   F   Dm 
 And way down we go-o-o-o-o 
            Am   F   Dm 
Way down we go 
                Am  F  Dm 
Say way down we go 
             Am  F  Dm 
Way down we go
00:00 / 00:00
Outros vídeos desta música
Repetir
Outros vídeos desta música
Composição de Jökull Julíusson
91.492 exibições
    • ½ Tom
    • A
    • Bb
    • B
    • C
    • Db
    • D
    • Eb
    • E
    • F
    • F#
    • G
    • Ab
  • Adicionar à lista

    0 comentários

    Ver todos os comentários

    Conseguiu tocar?

    22 Tocaram 3 Ainda não

    Grave um vídeo tocando Way Down We Go e nos envie!

    Entre para oCifra Club PRO

    Tenha acesso a benefícios exclusivos no App e no Site

    • Chega de anúncios

    • Prioridade de compra em lançamentos

    • Mais recursos no app do Afinador

    • Atendimento Prioritário

    • Descontos nos produtos Cifra Club

    • Ajude a produzir mais conteúdo

    00:00 / 00:00

    Cifra Club Pro

    Aproveite o Cifra Club com benefícios exclusivos e sem anúncios
    Cifra Club Pro
    Aproveite o Cifra Club com benefícios exclusivos e sem anúncios
    OK