Cifra Club

Aprenda

6Balas

k a m a i t a c h i

Cifra: Principal (violão e guitarra)
tom: Bm
[Intro] Bm  A  G  F#

       Bm                A
E|-------------------------------------------------|
B|--------3---------------2------------------------|
G|--------4---------------2------------------------|
D|-----4---------------2---------------------------|
A|--2--------2------0--------0---------------------|
E|-------------------------------------------------|

        G               F#
E|-------------------------------------------------|
B|-------------------------------------------------|
G|--------0---------------3------------------------|
D|--------0---------------4------------------------|
A|-----2---------------4---------------------------|
E|--3--------3------2--------2---------------------|

Bm  A
1800 e um bocado
G                  F#
E um velho oeste saqueado
Bm         A             G
As pessoas sofriam com nada que tinham
               F#
A comida, tava tudo esgotada

Bm       A
Meu pai dizia
           G
Acostume com essa vida, só nao siga a
 F#
merda do caminho errado
Bm       A             G             F#
Mal ele sabia, que um dia eu seria o terror da vila

E de todo estado

       Bm                A
E|---------------x---------------x-----------------|
B|--------3------x--------2------x-----------------|
G|--------4------x--------2------x-----------------|
D|-----4---------x-----2---------x-----------------|
A|--2--------2---x--0--------0---x-----------------|
E|---------------x---------------x-----------------|

        G               F#
E|--------------x----------------x-----------------|
B|--------------x----------------x-----------------|
G|--------0-----x---------3------x-----------------|
D|--------0-----x---------4------x-----------------|
A|-----2--------x------4---------x-----------------|
E|--3--------3--x---2--------2---x-----------------|

Bm        A
Aprendi desde cedo o que é colt
G        F#
Aprendi desde cedo o que é sair no soco
Bm        A
Aprendi desde cedo o que é colt
G        F#
Aprendi desde cedo o que é sair no soco

Bm    A      G      F#
Lá lá lá lá lá lá laiá laiá
Bm    A      G      F#
Lá lá lá lá lá lá laiá laiá

Bm  A
1877
  G              F#
Já tinha meus 17, já roubava com tio Jesse
Bm         A
Conheci um pivete que tinha uma Winchester
 G
Se denominava Billy

 F#
Disse que veio do centro-oeste

Bm          A
Que aprendeu desde cedo o que é roubo
G        F#
Aprendeu desde cedo como entrar no jogo
Bm          A
Que aprendeu desde cedo o que é roubo
G        F#
Aprendeu desde cedo como entrar no jogo

Bm    A      G      F#
Lá lá lá lá lá lá laiá laiá
Bm    A      G      F#
Lá lá lá lá lá lá laiá laiá

Bm               A
Mostra o que tu sabe fazer
         G
Então você vai ver

O que eu faço
      F#
Com um revolver com munição pra 6

   Bm
6 balas
  A          G
Que vara a cabeça e massacra
  F#           Bm
Dispara, depois gira a arma
A        G           F#
Cospe na terra com poça d'agua, assopra a fumaça 
 Bm
Bala
  A          G
Que vara a cabeça e massacra
  F#           Bm
Dispara, depois gira a arma
A        G           F#
Cospe na terra com poça d'agua, assopra a fumaça

Bm    A      G      F#
Lá lá lá lá lá lá laiá laiá
Bm    A      G      F#
Lá lá lá lá lá lá laiá laiá

Bm  A
1888
      G
Eu já tinha meus 28
  F#
Tombstone tava no poço
Bm               A
Billy e Jesse James tava morto
     G              F#
J. Wesley tava preso e eu era o único bixo solto
Bm         A
Já sabia como dominar a colt
G           F#
Como billy já sabia a regra do jogo
Bm         A
Já sabia como dominar a colt
G           F#
Como billy já sabia a regra do jogo

Bm    A      G      F#
Lá lá lá lá lá lá laiá laiá

Bm  A
1890
   G
Mandei foda-se Sundance Kid
F#
Foda-se Butch Cassidy
Bm
Foda-se Pat Garrett
A
Foda-se J.Wesley
G            F#
Foda-se a calamidade, eu não sou pivéte
Bm        A
5 mil de recompensa?

Ta de sacanagem?
  G            F#
Em terra de pistoleiro

Eu sou o rei dessa cidade
 Bm
Vou devastar essa merda
A
Sem uma luz no fim do túnel
 G
Tudo que tu disser
      F#
Vou responder

Ou prata ou chumbo,Pô!
Bm         A
Já sabia como esconder o corpo
G
Mas nem precisa
   F#
O dinheiro compra os outros
Bm         A
Já sabia como esconder o corpo
G
Mas nem precisa
   F#
O dinheiro compra os outros
Composição de kamaitachi
96.217 exibições
  • Simplificar cifra
    • ½ Tom
    • Am
    • Bbm
    • Bm
    • Cm
    • C#m
    • Dm
    • Ebm
    • Em
    • Fm
    • F#m
    • Gm
    • G#m
  • Adicionar à lista

    0 comentários

    Ver todos os comentários

    Conseguiu tocar?

    114 Tocaram 26 Ainda não

    Grave um vídeo tocando 6Balas e nos envie!

    00:00 / 00:00
    Outros vídeos desta música
    Repetir Qualidade Automático
    Outros vídeos desta música
    00:00 / 00:00
    Automático

    Cifra Club Pro

    Aproveite o Cifra Club com benefícios exclusivos e sem anúncios
    Cifra Club Pro
    Aproveite o Cifra Club com benefícios exclusivos e sem anúncios
    OK