Cifra Club

Alice

k a m a i t a c h i

Cifra: Principal (violão e guitarra)
Selo Cifra Club: esta cifra foi revisada para atender aos critérios oficiais da nossa Equipe de Qualidade.
tom: Am
Am         C                     F7M
Alice aplica na veia uma dose de felicidade
    Am             C            F7M
E a casa da felicidade cai nesse jardim

Am                    C       F7M
O céu que se fecha em nuvens, chora de tanto desgosto
 Am                C            F7M
Pegue tudo que usou     e jogue no rio

Am   C/B C F7M             Am     C/B C   F7M
Ah, se meus pés    andassem,   como seria?
Am    C/B C F7M            Am     C/B   C F7M
Ah, se meus pés    pisassem,  tudo adormeceria

G6         Am
Ah, heroína que me faz rebobinar
G6                   Am
Preciso de adrenalina La, la, la, la, la, la

G6         Am
Ah, heroína que me faz rebobinar
G6                  Am
Preciso de adrenalina La, la, la, la, la, la

( Am  C/B  C  F7M )

Parte 1 de 2
E|---9---11-----8/4----4-----4/6/4---|
B|-----------------------------------|
G|-----------------------------------|
D|-----------------------------------| (2x)
A|-----------------------------------|
E|-----------------------------------|

Parte 2 de 2
E|--------------------------------------------16---|
B|---6---9---6---------------6--9--6----9/11-------|
G|--------------5----5/6/3----------5--------------|
D|-------------------------------------------------|
A|-------------------------------------------------|
E|-------------------------------------------------|

Am              C                   F7M
Alice agarra no galho da vida e da morte
Am           C                 F7M
Dessa vez parece que Alice não teve sorte
Am              C/B
Convulsiona no canto do quarto
 F7M
Lacrimeja enquanto sua visão distorce
Am        C/B    C    F7M
Alice no país da overdose

Am   C/B C F7M             Am     C/B C   F7M
Ah, se meus pés    andassem,   como seria?
Am    C/B C F7M            Am     C/B   C F7M
Ah, se meus pés    pisassem,  tudo adormeceria

G6         Am
Ah, heroína que me faz rebobinar
G6                   Am
Preciso de adrenalina La, la, la, la, la, la

G6         Am
Ah, heroína que me faz rebobinar
G6                  Am
Preciso de adrenalina La, la, la, la, la, la

[Solo] Am  C/B  C  F7M

[Tab - Solo]

Parte 1 de 2
E|---9---11-----8/4----4-----4/6/4---|
B|-----------------------------------|
G|-----------------------------------|
D|-----------------------------------| (2x)
A|-----------------------------------|
E|-----------------------------------|

Parte 2 de 2
E|--------------------------------------------16---|
B|---6---9---6---------------6--9--6----9/11-------|
G|--------------5----5/6/3----------5--------------|
D|-------------------------------------------------|
A|-------------------------------------------------|
E|-------------------------------------------------|

Am    C/B C F7M
Ah, se meus pés    pisassem
Am    C/B C F7M          Am
Ah, se meus pés    pisassem
00:00 / 00:00
Outros vídeos desta música
Repetir
Outros vídeos desta música
29.696 exibições
  • Simplificar cifra
    • ½ Tom
    • Am
    • Bbm
    • Bm
    • Cm
    • C#m
    • Dm
    • Ebm
    • Em
    • Fm
    • F#m
    • Gm
    • G#m
  • Adicionar à lista

Afinação da cifra

Afinador online

    0 comentários

    Ver todos os comentários

    Conseguiu tocar?

    13 Tocaram 1 Ainda não

    Grave um vídeo tocando Alice e nos envie!

    Toque também

    1. Imagem do artista Konai Te Vi Na Rua Ontem Konai
    2. Imagem do artista Matuê A Morte do Autotune Matuê
    3. Imagem do artista Yung Lixo (Yun Li) Máquina do Tempo Yung Lixo (Yun Li)
    4. Imagem do artista Raffa Mogi Sentimentos Confusos Raffa Mogi

    Entre para o Cifra Club PRO

    Tenha acesso a benefícios exclusivos no App e no Site

    • Chega de anúncios

    • Mais recursos no app do Afinador

    • Atendimento Prioritário

    • Aumente seu limite de lista

    • Ajude a produzir mais conteúdo

    00:00 / 00:00

    Cifra Club Pro

    Aproveite o Cifra Club com benefícios exclusivos e sem anúncios
    Cifra Club Pro
    Aproveite o Cifra Club com benefícios exclusivos e sem anúncios
    OK