Cifra Club

Aprenda

Ave Expurgo

k a m a i t a c h i

Cifra: Principal (violão e guitarra)
tom: Cm
[Intro] 

  Cm
E|-------3---------3-----------3----------------|
B|-------4-------4-----------4------------------|
G|-----5-------5-------5---5-------5------------|
D|---5------------------------------------------|
A|-3---------3-------3---3-------3--------------|
E|----------------------------------------------|

   Ab
E|----------------------------------------------|
B|-------1---------1-----------1----------------|
G|-----1---------1-----------1------------------|
D|---1---------1-------1---1-------1------------|
A|----------------------------------------------|
E|-4---------4-------4---4-------4--------------|

   F7
E|----------------------------------------------|
B|-------1----------1-----------1---------------|
G|-----2----------2-----------2-----------------|
D|---1----------1-------1---1-------1-----------|
A|----------------------------------------------|
E|-1----------1-------1---1-------1-------------|

   Ab7                      G7
E|----------------------------------------------|
B|-------4---------------------3----------------|
G|-----5---------------------4------------------|
D|---4---------------------3--------------------|
A|----------------------------------------------|
E|-4---------------------3----------------------|

Cm
  Bendita noite
                                     Ab
Hora de soltar a raiva que tu sente desse pobre mundo
                                          F7
Que ama ver desgraça alheia, apaixonada pelo próprio orgulho
                                              Ab7
Que pisa em cacos, alma fraca, pra chegar no topo absoluto
 G7
Que faz dos outros seu escudo
Cm
  Ave expurgo
                                      Ab
Purifique todos, limpe pragas desse maldito mundo
                                            F7
Bendito seja aquele que não tenha medo de soltar seu próprio surto
                                  Ab7
Banha-se do ódio, faça do seu cúmulo o abismo absoluto
G7
Ave expurgo

Cm
  Maldita noite
                                   Ab
Boa pra alimentar demônios que no dia passa fome
                                         F7
Se o gato mata o rato pra se divertir, porque tu se esconde?
                                     Ab7
Leões perdem a majestade quando as hienas vem cercando aos montes
G7
E o consome
Cm
  Maldito somos
                                         Ab
Mentimos, fingimos, pisamos em todos, aceite todos somos frios
                                    F7
Seguimos caminhos que levam o que eu quero, não o que eu necessito
                                      Ab7
Pensamento de Maquiavel, se quer comandar então seja temido
G7
Um brinde ao nosso egoísmo!

[Final] 
  Cm             Ab
E|----------------------------------------------|
B|---3-----3---------1--------1-----------1-----|
G|---4-----4---------1------1-----------1-------|
D|---5-----5-------1------1-------1---1-------1-|
A|-3-----3--------------------------------------|
E|---------------4------4-------4---4-------4---|

   F7
E|----------------------------------------------|
B|-------1----------1-----------1---------------|
G|-----2----------2-----------2-----------------|
D|---1----------1-------1---1-------1-----------|
A|----------------------------------------------|
E|-1----------1-------1---1-------1-------------|

    Ab7
E|----------------------------------------------|
B|-------4----------4---------------------------|
G|-----5----------5-----------------------------|
D|---4-------4--4-------4-----------------------|
A|----------------------------------------------|
E|-4-------4---4-------4------------------------|

   G7
E|----------------------------------------------|
B|-------3-----------3-----------3-----------3--|
G|-----4-----------4-----------4-----------4----|
D|---3-------3---3-------3---3-------3---3------|
A|----------------------------------------------|
E|-3-------3---3-------3---3-------3---3--------|

   Cm
E|-----3--|
B|----4---|
G|---5----|
D|--5-----|
A|-3------|
E|--------|
Composição de K a m a i t a c h i
Colaboração e revisão:
36.555 exibições
  • Simplificar cifra
    • ½ Tom
    • Am
    • Bbm
    • Bm
    • Cm
    • C#m
    • Dm
    • Ebm
    • Em
    • Fm
    • F#m
    • Gm
    • G#m
  • Adicionar à lista

    0 comentários

    Ver todos os comentários

    Conseguiu tocar?

    29 Tocaram 16 Ainda não

    Grave um vídeo tocando Ave Expurgo e nos envie!

    00:00 / 00:00
    Outros vídeos desta música
    Repetir Qualidade Automático
    Outros vídeos desta música
    00:00 / 00:00
    Automático

    Cifra Club Pro

    Aproveite o Cifra Club com benefícios exclusivos e sem anúncios
    Cifra Club Pro
    Aproveite o Cifra Club com benefícios exclusivos e sem anúncios
    OK