Cifra Club

lana

k a m a i t a c h i

Cifra: Principal (violão e guitarra)
tom: Ebm
[Intro] D#m  B  F#  Bb7
        D#m  B  F#  Bb7

[Solo Intro]

E|-11-9-11-9----------------9----------------------|
B|-----------12-11--11-9-11---11-------------------|
G|-------------------------------------------------|
D|-------------------------------------------------|
A|-------------------------------------------------|
E|-------------------------------------------------|

E|-11-9-11-9---------------------------------------|
B|-----------12-11--11-9---------------------------|
G|-----------------------11-10-8-------------------|
D|-------------------------------------------------|
A|-------------------------------------------------|
E|-------------------------------------------------|

D#m  
Teu poder funciona muito bem em minha pessoa
                          Bb7           
Meus olhos dilatam como se fosse de doce
D#m
Teus colares brilham, mas não brilham mais que teu sorriso
                          Bb7
O jeito que tu dança é como estar em Woodstock

D#m  D#m/B          D#m
Você só pode ter um dom
C#                         Bb7
Um relógio hipnótico feito para o meu coração
D#m          D#m/B    D#m   
Inexplicável é minha fixação 
B                             C#      Bb7
Que parece que eu degustei um gole da tua poção

D#m            B              F#      Bb7
Traz pra mim o teu jeito rebelde de odiar o mundo
D#m            B      F#          Bb7
Sua banda favorita, sua visão do futuro
D#m            B              F#      Bb7
A sua jaqueta jeans combina com seus tênis rubros
D#m            B      F#          Bb7
Você é muito má, mas eu até que aturo
D#m            B      F#          Bb7
O teu jeito rebelde de odiar o mundo
D#m            B      F#          Bb7
Sua banda favorita, sua visão do futuro
D#m            B              F#          Bb7
A sua jaqueta jeans combina com seus tênis rubros
D#m            B      F#          Bb7
Você é muito má, mas eu até que aturo

( D#m  B  F#  Bb7 )

[Solo]

E|-11-9-11-9----------------9----------------------|
B|-----------12-11--11-9-11---11-------------------|
G|-------------------------------------------------|
D|-------------------------------------------------|
A|-------------------------------------------------|
E|-------------------------------------------------|

E|-11-9-11-9---------------------------------------|
B|-----------12-11--11-9---------------------------|
G|-----------------------11-10-8-------------------|
D|-------------------------------------------------|
A|-------------------------------------------------|
E|-------------------------------------------------|

D#m  
Teu poder funciona muito bem em minha pessoa
                          Bb7           
Meus olhos dilatam como se fosse de doce
D#m
Teus colares brilham, mas não brilham mais que teu sorriso
                          Bb7
O jeito que tu dança é como estar em Woodstock

D#m  D#m/B          D#m
Você só pode ter um dom
C#                         Bb7
Um relógio hipnótico feito para o meu coração
D#m          D#m/B    D#m   
Inexplicável é minha fixação 
B                             C#      Bb7
Que parece que eu degustei um gole da tua poção

D#m            B              F#      Bb7
Traz pra mim o teu jeito rebelde de odiar o mundo
D#m            B      F#          Bb7
Sua banda favorita, sua visão do futuro
D#m            B              F#      Bb7
A sua jaqueta jeans combina com seus tênis rubros
D#m            B      F#          Bb7
Você é muito má, mas eu até que aturo
D#m            B      F#          Bb7
O teu jeito rebelde de odiar o mundo
D#m            B      F#          Bb7
Sua banda favorita, sua visão do futuro
D#m            B              F#          Bb7
A sua jaqueta jeans combina com seus tênis rubros
D#m            B      F#          Bb7
Você é muito má, mas eu até que aturo

[Solo]

E|-11-9-11-9----------------9----------------------|
B|-----------12-11--11-9-11---11-------------------|
G|-------------------------------------------------|
D|-------------------------------------------------|
A|-------------------------------------------------|
E|-------------------------------------------------|

E|-11-9-11-9---------------------------------------|
B|-----------12-11--11-9---------------------------|
G|-----------------------11-10-8-------------------|
D|-------------------------------------------------|
A|-------------------------------------------------|
E|-------------------------------------------------|

( D#m  B  F# )
00:00 / 00:00
Outros vídeos desta música
Repetir
Outros vídeos desta música
Composição de K a m a i t a c h i
Colaboração e revisão:
  • Levi br
  • hashira zin
53.377 exibições
  • Simplificar cifra
    • ½ Tom
    • Am
    • Bbm
    • Bm
    • Cm
    • C#m
    • Dm
    • Ebm
    • Em
    • Fm
    • F#m
    • Gm
    • G#m
  • Adicionar à lista

    0 comentários

    Ver todos os comentários

    Entre para oCifra Club PRO

    Tenha acesso a benefícios exclusivos no App e no Site

    • Chega de anúncios

    • Prioridade de compra em lançamentos

    • Mais recursos no app do Afinador

    • Atendimento Prioritário

    • Descontos nos produtos Cifra Club

    • Ajude a produzir mais conteúdo

    00:00 / 00:00

    Cifra Club Pro

    Aproveite o Cifra Club com benefícios exclusivos e sem anúncios
    Cifra Club Pro
    Aproveite o Cifra Club com benefícios exclusivos e sem anúncios
    OK