Cifra Club

Moby Dick

k a m a i t a c h i

Cifra: Principal (violão e guitarra)
tom: Db (forma dos acordes no tom de C) Capotraste na 1ª casa
[Intro] Am  C  F  E

E|------6--3--6--6--3--6--3-----------------|
B|------------------------------------------|
G|------------------------------------------|
D|------------------------------------------|
A|------------------------------------------|
E|------------------------------------------|
                                              
E|------------------------------------------|
B|------6--3--6--6--3--6--3-----------------|
G|------------------------------------------|
D|------------------------------------------|
A|------------------------------------------|
E|------------------------------------------|

E|------6--3--6--6--3--6--3-----------------|
B|------------------------------------------|
G|------------------------------------------|
D|------------------------------------------|
A|------------------------------------------|
E|------------------------------------------|
                                              
E|------------------------------------------|
B|------6--3--6--6--3--6--3-----------------|
G|------------------------------------------|
D|------------------------------------------|
A|------------------------------------------|
E|------------------------------------------|

E|------6--3--6--6--6--3--6--9--------------|
B|------------------------------------------|
G|------------------------------------------|
D|------------------------------------------|
A|------------------------------------------|
E|------------------------------------------|

E|13-13-11-9-6-13-13-13-13-11-9-11-13-11-9-6|
B|------------------------------------------|
G|------------------------------------------|
D|------------------------------------------|
A|------------------------------------------|
E|------------------------------------------|

 Am             C   
Criei em mim o Titanic
  F                      E
E prometi pra mim mesmo que
                       Am  C  F  E
Esse barco não naufragará
   Am                     C
E naufraguei, não em um iceberg
   F
E sim no ódio e no rancor
     E
Que veio me puxar
  Am      C     F     E  
E me levar para o mar
   Am           C
Do mar avistei Moby Dick
     F                      E
Que veio com a morte com o desejo
                   Am   C  F  E
De me abraçar e me livrar
       Am                 C
Me livrar dessa maldita água fria
  F                   E
Onde apelidam ela de vida
            Am  C  F  E
Achar meu lá

Am                C
Chuva, trovão, molhado
F                 E
Calo, cansado e descalço
Am                C
Chuva, trovão, molhado
F                 E
Calo, cansado e descalço

         F   
Me diga você mesmo      
Quantas vezes já correu         
De um pesadelo  
O seu corpo pesa
            Am
Na lama do medo   
Medo de sempre
 C
Tentar                 
Jogar seu corpo inteiro

 F
Você mesmo    
Quantas vezes já correu        
De um pesadelo 
O seu corpo pesa
            Am
Na lama do medo   
Medo de sempre
 C
Tentar
                       F  Am  C  F  Am  C  E
Jogar seu corpo inteiro

 Am             C   
Criei em mim o Titanic
  F                      E
E prometi pra mim mesmo que
                       Am  C  F  E
Esse barco não naufragará
   Am                     C
E naufraguei, não em um iceberg
   F
E sim no ódio e no rancor
     E
Que veio me puxar
  Am      C     F     E  
E me levar para o mar
   Am           C
Do mar avistei Moby Dick
     F                      E
Que veio com a morte com o desejo
                   Am   C  F  E
De me abraçar e me livrar
       Am                 C
Me livrar dessa maldita água fria
  F                   E
Onde apelidam ela de vida
            Am  C  F  E
Achar meu lá

Am                C
Chuva, trovão, molhado
F                 E
Calo, cansado e descalço
Am                C
Chuva, trovão, molhado
F                 E
Calo, cansado e descalço

         F   
Me diga você mesmo      
Quantas vezes já correu         
De um pesadelo  
O seu corpo pesa
            Am
Na lama do medo    
Medo de sempre
 C
Tentar                  
Jogar seu corpo inteiro

 F
Você mesmo      
Quantas vezes já correu     
De um pesadelo
O seu corpo pesa
            Am
Na lama do medo    
Medo de sempre
 C
Tentar
                       F  Am  C  F  Am  C  E
Jogar seu corpo inteiro

        F
Me diga você mesmo
                         F
Será que o relógio ainda roda?
                              Am
Ou seu pensamento que trouxe de volta?
                 C
Toda a maldita dor
                                 F
A maldita dor que sempre incomoda

[Dedilhado]

        Am                    C
E|------------------------------------------|
B|-----2--------------------2---------------|
G|-----3--------------------1---------------|
D|---3------3-------------3------3----------|
A|-1------1-------------4------4------------|
E|------------------------------------------|

         F                    E
E|------------------------------------------|
B|------------------------------------------|
G|-----3--------------------2---------------|
D|-----4--------------------3---------------|
A|---4------4-------------3------3----------|
E|-2------2-------------1------1------------|
00:00 / 00:00
Outros vídeos desta música
Repetir
Outros vídeos desta música
Composição de K a m a i t a c h i
Colaboração e revisão:
40.971 exibições
    • ½ Tom
    • A
    • Bb
    • B
    • C
    • Db
    • D
    • Eb
    • E
    • F
    • F#
    • G
    • Ab
  • Adicionar à lista

    0 comentários

    Ver todos os comentários

    Conseguiu tocar?

    48 Tocaram 8 Ainda não

    Grave um vídeo tocando Moby Dick e nos envie!

    Entre para oCifra Club PRO

    Tenha acesso a benefícios exclusivos no App e no Site

    • Chega de anúncios

    • Prioridade de compra em lançamentos

    • Mais recursos no app do Afinador

    • Atendimento Prioritário

    • Descontos nos produtos Cifra Club

    • Ajude a produzir mais conteúdo

    00:00 / 00:00

    Cifra Club Pro

    Aproveite o Cifra Club com benefícios exclusivos e sem anúncios
    Cifra Club Pro
    Aproveite o Cifra Club com benefícios exclusivos e sem anúncios
    OK