Cifra Club

Genocide

Kamala

Cifra: Principal (violão e guitarra)
tom: G
Intro:
Db|-----------------|
Ab|-----------------|
E||-----------------|
B||-----------------|
Gb|-1-0-x-x-x-x-x-x-|
B||-1-0-x-x-x-x-x-x-|

Riff1:

Db|-------------------------------------------------------------|
Ab|-------------------------------------------------------------|
E||-----------------------------------------------------5L8-5L8-|
B||---------------------------------------------4L7-4L7---------|
Gb|-----------------------------3L6-3L6-3L6-3L6-----------------|
B||-0-0-0-0-0-0-0-0-0-0-0-0-0-0---------------------------------|

Db|-------------------------------------------------------------|
Ab|-------------------------------------------------------------|
E||-----------------------------------------------------5L8-5L8-|
B||---------------------------------------------4L7-4L7---------|
Gb|-------------------------------------------------------------|
B||-0-0-0-0-0-0-0-0-0-0-0-0-0-0-0-0-0-0-0-0-0-0-----------------|

Riff2:

Db|--------------------------------------------------------------------------|
Ab|--------------------------------------------------------------------------|
E||-----------------------------5L8-5L8--------------------------------------|
B||---------------------4L7-4L7----------------------------------------------|
Gb|----------------------------------------------------------2L5-2L5-1L4-1L4-|
B||-0-0----0-0----0-0--------------------0-0----0-0----0-0-------------------|

Chorus:

Db|-------------------------------------------------------------------------------------|
Ab|-------------------------------------------------------------------------------------|
E||-------------------------------------------------------------------------------------|
B||-------------------------------------------------------------------------------------|
Gb|-5-6-5-3-5-6-5-3-----------------------5-6-5-3-5-6-5-3-------------------------------|
B||---6-5-3---6-5-3-000000000000000000000---6-5-3---6-5-3-000000000000000000000000-3(H)-|

Riff3:

Db|---------------------------------------------------------------------------------------------------|
Ab|---------------------------------------------------------------------------------------------------|
E||------------------------------------------5L8-5L8--------------------------------------------------|
B||----------------------------------4L7-4L7----------------------------------------------------------|
Gb|-----------------------------------------------------------------------------------2L5-2L5-1L4-1L4-|
B||-0-0-0-3(H)-0-0-0-3(H)-0-0-0-3(H)-----------------0-0-0-3(H)-0-0-0-3(H)-0-0-0-3(H)-----------------|

End.
00:00 / 00:00
Outros vídeos desta música
Repetir
Outros vídeos desta música
Composição de Raphael Olmos
Colaboração e revisão:
  • Kamala
244 exibições
    • ½ Tom
    • A
    • Bb
    • B
    • C
    • Db
    • D
    • Eb
    • E
    • F
    • F#
    • G
    • Ab
  • Adicionar à lista

    0 comentários

    Ver todos os comentários

    Conseguiu tocar?

    0 Tocaram 0 Ainda não

    Grave um vídeo tocando Genocide e nos envie!

    Entre para oCifra Club PRO

    Tenha acesso a benefícios exclusivos no App e no Site

    • Chega de anúncios

    • Prioridade de compra em lançamentos

    • Mais recursos no app do Afinador

    • Atendimento Prioritário

    • Descontos nos produtos Cifra Club

    • Ajude a produzir mais conteúdo

    00:00 / 00:00

    Cifra Club Pro

    Aproveite o Cifra Club com benefícios exclusivos e sem anúncios
    Cifra Club Pro
    Aproveite o Cifra Club com benefícios exclusivos e sem anúncios
    OK